0
SECTION
2
HEADER
9
$ACADVER
1
AC1009
0
ENDSEC
0
SECTION
2
TABLES
0
TABLE
2
LAYER
70
1
0
LAYER
2
Základní_vrstva
62
255
70
0
6
CONTINUOUS
0
ENDTAB
0
ENDSEC
0
SECTION
2
ENTITIES
0
LINE
8
Základní_vrstva
62
3
10
2669.20865610453
20
3049.41799320877
30
0
11
2679.52740610453
21
3056.66096195877
31
0
0
TEXT
8
Základní_vrstva
62
3
10
2637.75631235453
20
3049.61643070877
30
0
40
3
50
0
11
2637.75631235453
21
3049.61643070877
31
0
1
trávnatá plocha
72
0
73
3
0
POLYLINE
8
Základní_vrstva
62
0
66
1
0
VERTEX
8
Základní_vrstva
10
2307.65812477988
20
3355.30804540737
30
0
0
VERTEX
8
Základní_vrstva
10
2507.65812477988
20
3355.30804540737
30
0
0
VERTEX
8
Základní_vrstva
10
2507.65812477988
20
3299.99338999456
30
0
0
VERTEX
8
Základní_vrstva
10
2307.65812477988
20
3299.99338999456
30
0
0
VERTEX
8
Základní_vrstva
10
2307.65812477988
20
3355.30804540737
30
0
0
SEQEND
0
LINE
8
Základní_vrstva
62
0
10
2430.18612477988
20
3355.30804540737
30
0
11
2430.18612477988
21
3299.99338999456
31
0
0
LINE
8
Základní_vrstva
62
0
10
2430.18612477988
20
3346.0889361719
30
0
11
2507.65812477988
21
3346.0889361719
31
0
0
LINE
8
Základní_vrstva
62
0
10
2307.65812477988
20
3336.86982693643
30
0
11
2507.65812477988
21
3336.86982693643
31
0
0
LINE
8
Základní_vrstva
62
0
10
2430.18612477988
20
3327.65071770097
30
0
11
2507.65812477988
21
3327.65071770097
31
0
0
LINE
8
Základní_vrstva
62
0
10
2307.65812477988
20
3318.4316084655
30
0
11
2507.65812477988
21
3318.4316084655
31
0
0
LINE
8
Základní_vrstva
62
0
10
2430.18612477988
20
3309.21249923003
30
0
11
2507.65812477988
21
3309.21249923003
31
0
0
LINE
8
Základní_vrstva
62
0
10
2449.13612477988
20
3346.0889361719
30
0
11
2449.13612477988
21
3299.99338999456
31
0
0
TEXT
8
Základní_vrstva
62
0
10
2308.65812477988
20
3348.3389361719
30
0
40
2.25
50
0
11
2308.65812477988
21
3348.3389361719
31
0
1
Projekt pozemkových úprav Ve¾ký Ruskov (okr. TV, k.ú. V. Ruskov)
72
0
73
3
0
TEXT
8
Základní_vrstva
62
0
10
2431.18612477988
20
3352.44849078963
30
0
40
1.75
50
0
11
2431.18612477988
21
3352.44849078963
31
0
1
Objednávate¾ : LUPO-GEO s.r.o., J.Husa 1460/23, TV
72
0
73
3
0
TEXT
8
Základní_vrstva
62
0
10
2431.18612477988
20
3343.22938155417
30
0
40
1.75
50
0
11
2431.18612477988
21
3343.22938155417
31
0
1
Zhotovite¾
72
0
73
3
0
TEXT
8
Základní_vrstva
62
0
10
2450.13612477988
20
3343.22938155417
30
0
40
1.75
50
0
11
2450.13612477988
21
3343.22938155417
31
0
1
STAFIN s.r.o., B.Nemcovej 3538/3, TV
72
0
73
3
0
TEXT
8
Základní_vrstva
62
0
10
2308.65812477988
20
3329.90071770097
30
0
40
2.25
50
0
11
2308.65812477988
21
3329.90071770097
31
0
1
Ekologické, protierózne a krajinotvorné zariadenia a opatrenia
72
0
73
3
0
TEXT
8
Základní_vrstva
62
0
10
2431.18612477988
20
3334.0102723187
30
0
40
1.75
50
0
11
2431.18612477988
21
3334.0102723187
31
0
1
Vypracoval
72
0
73
3
0
TEXT
8
Základní_vrstva
62
0
10
2450.13612477988
20
3334.0102723187
30
0
40
1.75
50
0
11
2450.13612477988
21
3334.0102723187
31
0
1
Ing. Estera Schwartzová
72
0
73
3
0
TEXT
8
Základní_vrstva
62
0
10
2431.18612477988
20
3324.79116308323
30
0
40
1.75
50
0
11
2431.18612477988
21
3324.79116308323
31
0
1
Dátum
72
0
73
3
0
TEXT
8
Základní_vrstva
62
0
10
2450.13612477988
20
3324.79116308323
30
0
40
1.75
50
0
11
2450.13612477988
21
3324.79116308323
31
0
1
20.5.2008
72
0
73
3
0
TEXT
8
Základní_vrstva
62
0
10
2308.65812477988
20
3311.96249923003
30
0
40
2.75
50
0
11
2308.65812477988
21
3311.96249923003
31
0
1
Výkres : Ekostabilizaèná plocha SOZ 15
72
0
73
3
0
TEXT
8
Základní_vrstva
62
0
10
2431.18612477988
20
3315.57205384777
30
0
40
1.75
50
0
11
2431.18612477988
21
3315.57205384777
31
0
1
Formát
72
0
73
3
0
TEXT
8
Základní_vrstva
62
0
10
2450.13612477988
20
3315.57205384777
30
0
40
1.75
50
0
11
2450.13612477988
21
3315.57205384777
31
0
1
A3
72
0
73
3
0
TEXT
8
Základní_vrstva
62
0
10
2431.18612477988
20
3306.3529446123
30
0
40
1.75
50
0
11
2431.18612477988
21
3306.3529446123
31
0
1
Mierka
72
0
73
3
0
TEXT
8
Základní_vrstva
62
0
10
2450.13612477988
20
3306.3529446123
30
0
40
1.75
50
0
11
2450.13612477988
21
3306.3529446123
31
0
1
1:1000
72
0
73
3
0
POLYLINE
8
Základní_vrstva
62
0
66
1
0
VERTEX
8
Základní_vrstva
10
2306.69963456991
20
3356.26296890734
30
0
0
VERTEX
8
Základní_vrstva
10
2508.65623902226
20
3356.26296890734
30
0
0
VERTEX
8
Základní_vrstva
10
2508.65623902226
20
3298.91202186583
30
0
0
VERTEX
8
Základní_vrstva
10
2306.69963456991
20
3298.91202186583
30
0
0
VERTEX
8
Základní_vrstva
10
2306.69963456991
20
3356.26296890734
30
0
0
SEQEND
0
POLYLINE
8
Základní_vrstva
62
0
66
1
0
VERTEX
8
Základní_vrstva
10
2536.2099614892
20
3787.44639532209
30
0
0
VERTEX
8
Základní_vrstva
10
2725.21653086672
20
3787.44639532209
30
0
0
VERTEX
8
Základní_vrstva
10
2725.21653086672
20
2964.88980539113
30
0
0
VERTEX
8
Základní_vrstva
10
2536.2099614892
20
2964.88980539113
30
0
0
VERTEX
8
Základní_vrstva
10
2536.2099614892
20
3787.44639532209
30
0
0
SEQEND
0
ENDSEC
0
EOF
