0
SECTION
2
HEADER
9
$ACADVER
1
AC1009
0
ENDSEC
0
SECTION
2
TABLES
0
TABLE
2
LAYER
70
1
0
LAYER
2
Základní_vrstva
62
255
70
0
6
CONTINUOUS
0
ENDTAB
0
ENDSEC
0
SECTION
2
ENTITIES
0
LINE
8
Základní_vrstva
62
3
10
2771.90478779356
20
3043.11094038641
30
0
11
2771.82438779356
21
3043.29854038641
31
0
0
LINE
8
Základní_vrstva
62
3
10
2771.82438779356
20
3043.29854038641
30
0
11
2771.69038779356
21
3043.50624038641
31
0
0
LINE
8
Základní_vrstva
62
3
10
2771.69038779356
20
3043.50624038641
30
0
11
2771.63008779356
21
3043.73404038641
31
0
0
LINE
8
Základní_vrstva
62
3
10
2771.63008779356
20
3043.73404038641
30
0
11
2771.53628779356
21
3043.93504038641
31
0
0
LINE
8
Základní_vrstva
62
3
10
2771.53628779356
20
3043.93504038641
30
0
11
2771.32188779356
21
3044.04224038641
31
0
0
LINE
8
Základní_vrstva
62
3
10
2771.32188779356
20
3044.04224038641
30
0
11
2771.10078779356
21
3044.10254038641
31
0
0
LINE
8
Základní_vrstva
62
3
10
2771.10078779356
20
3044.10254038641
30
0
11
2770.91988779356
21
3044.22984038641
31
0
0
LINE
8
Základní_vrstva
62
3
10
2770.91988779356
20
3044.22984038641
30
0
11
2770.71218779356
21
3044.32364038641
31
0
0
LINE
8
Základní_vrstva
62
3
10
2770.71218779356
20
3044.32364038641
30
0
11
2770.49108779356
21
3044.26334038641
31
0
0
LINE
8
Základní_vrstva
62
3
10
2770.49108779356
20
3044.26334038641
30
0
11
2770.29678779356
21
3044.16954038641
31
0
0
LINE
8
Základní_vrstva
62
3
10
2770.29678779356
20
3044.16954038641
30
0
11
2770.06898779356
21
3044.14944038641
31
0
0
LINE
8
Základní_vrstva
62
3
10
2770.06898779356
20
3044.14944038641
30
0
11
2769.84118779356
21
3044.09584038641
31
0
0
LINE
8
Základní_vrstva
62
3
10
2769.84118779356
20
3044.09584038641
30
0
11
2769.70048779356
21
3043.90154038641
31
0
0
LINE
8
Základní_vrstva
62
3
10
2769.70048779356
20
3043.90154038641
30
0
11
2769.59998779356
21
3043.69384038641
31
0
0
LINE
8
Základní_vrstva
62
3
10
2769.59998779356
20
3043.69384038641
30
0
11
2769.44588779356
21
3043.53974038641
31
0
0
LINE
8
Základní_vrstva
62
3
10
2769.44588779356
20
3043.53974038641
30
0
11
2769.31188779356
21
3043.33204038641
31
0
0
LINE
8
Základní_vrstva
62
3
10
2769.31188779356
20
3043.33204038641
30
0
11
2769.33198779356
21
3043.10424038641
31
0
0
LINE
8
Základní_vrstva
62
3
10
2769.33198779356
20
3043.10424038641
30
0
11
2769.39228779356
21
3042.89654038641
31
0
0
LINE
8
Základní_vrstva
62
3
10
2769.39228779356
20
3042.89654038641
30
0
11
2769.36548779356
21
3042.67544038641
31
0
0
LINE
8
Základní_vrstva
62
3
10
2769.36548779356
20
3042.67544038641
30
0
11
2769.38558779356
21
3042.44764038641
31
0
0
LINE
8
Základní_vrstva
62
3
10
2769.38558779356
20
3042.44764038641
30
0
11
2769.55308779356
21
3042.27344038641
31
0
0
LINE
8
Základní_vrstva
62
3
10
2769.55308779356
20
3042.27344038641
30
0
11
2769.74738779356
21
3042.13944038641
31
0
0
LINE
8
Základní_vrstva
62
3
10
2769.74738779356
20
3042.13944038641
30
0
11
2769.87468779356
21
3041.95854038641
31
0
0
LINE
8
Základní_vrstva
62
3
10
2769.87468779356
20
3041.95854038641
30
0
11
2770.02208779356
21
3041.80444038641
31
0
0
LINE
8
Základní_vrstva
62
3
10
2770.02208779356
20
3041.80444038641
30
0
11
2770.24988779356
21
3041.78434038641
31
0
0
LINE
8
Základní_vrstva
62
3
10
2770.24988779356
20
3041.78434038641
30
0
11
2770.48438779356
21
3041.80444038641
31
0
0
LINE
8
Základní_vrstva
62
3
10
2770.48438779356
20
3041.80444038641
30
0
11
2770.69878779356
21
3041.74414038641
31
0
0
LINE
8
Základní_vrstva
62
3
10
2770.69878779356
20
3041.74414038641
30
0
11
2770.93328779356
21
3041.72404038641
31
0
0
LINE
8
Základní_vrstva
62
3
10
2770.93328779356
20
3041.72404038641
30
0
11
2771.12088779356
21
3041.85134038641
31
0
0
LINE
8
Základní_vrstva
62
3
10
2771.12088779356
20
3041.85134038641
30
0
11
2771.27498779356
21
3042.01214038641
31
0
0
LINE
8
Základní_vrstva
62
3
10
2771.27498779356
20
3042.01214038641
30
0
11
2771.48268779356
21
3042.10594038641
31
0
0
LINE
8
Základní_vrstva
62
3
10
2771.48268779356
20
3042.10594038641
30
0
11
2771.67698779356
21
3042.24664038641
31
0
0
LINE
8
Základní_vrstva
62
3
10
2771.67698779356
20
3042.24664038641
30
0
11
2771.74398779356
21
3042.47444038641
31
0
0
LINE
8
Základní_vrstva
62
3
10
2771.74398779356
20
3042.47444038641
30
0
11
2771.75738779356
21
3042.70224038641
31
0
0
LINE
8
Základní_vrstva
62
3
10
2771.75738779356
20
3042.70224038641
30
0
11
2771.85118779356
21
3042.91664038641
31
0
0
LINE
8
Základní_vrstva
62
3
10
2771.85118779356
20
3042.91664038641
30
0
11
2771.91148779356
21
3043.11094038641
31
0
0
CIRCLE
8
Základní_vrstva
62
3
10
2770.59158779356
20
3043.00374038641
30
0
40
0.111666666666679
0
LINE
8
Základní_vrstva
62
3
10
2777.46103779356
20
3044.59922163641
30
0
11
2777.38063779356
21
3044.78682163641
31
0
0
LINE
8
Základní_vrstva
62
3
10
2777.38063779356
20
3044.78682163641
30
0
11
2777.24663779356
21
3044.99452163641
31
0
0
LINE
8
Základní_vrstva
62
3
10
2777.24663779356
20
3044.99452163641
30
0
11
2777.18633779356
21
3045.22232163641
31
0
0
LINE
8
Základní_vrstva
62
3
10
2777.18633779356
20
3045.22232163641
30
0
11
2777.09253779356
21
3045.42332163641
31
0
0
LINE
8
Základní_vrstva
62
3
10
2777.09253779356
20
3045.42332163641
30
0
11
2776.87813779356
21
3045.53052163641
31
0
0
LINE
8
Základní_vrstva
62
3
10
2776.87813779356
20
3045.53052163641
30
0
11
2776.65703779356
21
3045.59082163641
31
0
0
LINE
8
Základní_vrstva
62
3
10
2776.65703779356
20
3045.59082163641
30
0
11
2776.47613779356
21
3045.71812163641
31
0
0
LINE
8
Základní_vrstva
62
3
10
2776.47613779356
20
3045.71812163641
30
0
11
2776.26843779356
21
3045.81192163641
31
0
0
LINE
8
Základní_vrstva
62
3
10
2776.26843779356
20
3045.81192163641
30
0
11
2776.04733779356
21
3045.75162163641
31
0
0
LINE
8
Základní_vrstva
62
3
10
2776.04733779356
20
3045.75162163641
30
0
11
2775.85303779356
21
3045.65782163641
31
0
0
LINE
8
Základní_vrstva
62
3
10
2775.85303779356
20
3045.65782163641
30
0
11
2775.62523779356
21
3045.63772163641
31
0
0
LINE
8
Základní_vrstva
62
3
10
2775.62523779356
20
3045.63772163641
30
0
11
2775.39743779356
21
3045.58412163641
31
0
0
LINE
8
Základní_vrstva
62
3
10
2775.39743779356
20
3045.58412163641
30
0
11
2775.25673779356
21
3045.38982163641
31
0
0
LINE
8
Základní_vrstva
62
3
10
2775.25673779356
20
3045.38982163641
30
0
11
2775.15623779356
21
3045.18212163641
31
0
0
LINE
8
Základní_vrstva
62
3
10
2775.15623779356
20
3045.18212163641
30
0
11
2775.00213779356
21
3045.02802163641
31
0
0
LINE
8
Základní_vrstva
62
3
10
2775.00213779356
20
3045.02802163641
30
0
11
2774.86813779356
21
3044.82032163641
31
0
0
LINE
8
Základní_vrstva
62
3
10
2774.86813779356
20
3044.82032163641
30
0
11
2774.88823779356
21
3044.59252163641
31
0
0
LINE
8
Základní_vrstva
62
3
10
2774.88823779356
20
3044.59252163641
30
0
11
2774.94853779356
21
3044.38482163641
31
0
0
LINE
8
Základní_vrstva
62
3
10
2774.94853779356
20
3044.38482163641
30
0
11
2774.92173779356
21
3044.16372163641
31
0
0
LINE
8
Základní_vrstva
62
3
10
2774.92173779356
20
3044.16372163641
30
0
11
2774.94183779356
21
3043.93592163641
31
0
0
LINE
8
Základní_vrstva
62
3
10
2774.94183779356
20
3043.93592163641
30
0
11
2775.10933779356
21
3043.76172163641
31
0
0
LINE
8
Základní_vrstva
62
3
10
2775.10933779356
20
3043.76172163641
30
0
11
2775.30363779356
21
3043.62772163641
31
0
0
LINE
8
Základní_vrstva
62
3
10
2775.30363779356
20
3043.62772163641
30
0
11
2775.43093779356
21
3043.44682163641
31
0
0
LINE
8
Základní_vrstva
62
3
10
2775.43093779356
20
3043.44682163641
30
0
11
2775.57833779356
21
3043.29272163641
31
0
0
LINE
8
Základní_vrstva
62
3
10
2775.57833779356
20
3043.29272163641
30
0
11
2775.80613779356
21
3043.27262163641
31
0
0
LINE
8
Základní_vrstva
62
3
10
2775.80613779356
20
3043.27262163641
30
0
11
2776.04063779356
21
3043.29272163641
31
0
0
LINE
8
Základní_vrstva
62
3
10
2776.04063779356
20
3043.29272163641
30
0
11
2776.25503779356
21
3043.23242163641
31
0
0
LINE
8
Základní_vrstva
62
3
10
2776.25503779356
20
3043.23242163641
30
0
11
2776.48953779356
21
3043.21232163641
31
0
0
LINE
8
Základní_vrstva
62
3
10
2776.48953779356
20
3043.21232163641
30
0
11
2776.67713779356
21
3043.33962163641
31
0
0
LINE
8
Základní_vrstva
62
3
10
2776.67713779356
20
3043.33962163641
30
0
11
2776.83123779356
21
3043.50042163641
31
0
0
LINE
8
Základní_vrstva
62
3
10
2776.83123779356
20
3043.50042163641
30
0
11
2777.03893779356
21
3043.59422163641
31
0
0
LINE
8
Základní_vrstva
62
3
10
2777.03893779356
20
3043.59422163641
30
0
11
2777.23323779356
21
3043.73492163641
31
0
0
LINE
8
Základní_vrstva
62
3
10
2777.23323779356
20
3043.73492163641
30
0
11
2777.30023779356
21
3043.96272163641
31
0
0
LINE
8
Základní_vrstva
62
3
10
2777.30023779356
20
3043.96272163641
30
0
11
2777.31363779356
21
3044.19052163641
31
0
0
LINE
8
Základní_vrstva
62
3
10
2777.31363779356
20
3044.19052163641
30
0
11
2777.40743779356
21
3044.40492163641
31
0
0
LINE
8
Základní_vrstva
62
3
10
2777.40743779356
20
3044.40492163641
30
0
11
2777.46773779356
21
3044.59922163641
31
0
0
CIRCLE
8
Základní_vrstva
62
3
10
2776.14783779356
20
3044.49202163641
30
0
40
0.111666666666679
0
LINE
8
Základní_vrstva
62
3
10
2782.22353779356
20
3045.88906538641
30
0
11
2782.14313779356
21
3046.07666538641
31
0
0
LINE
8
Základní_vrstva
62
3
10
2782.14313779356
20
3046.07666538641
30
0
11
2782.00913779356
21
3046.28436538641
31
0
0
LINE
8
Základní_vrstva
62
3
10
2782.00913779356
20
3046.28436538641
30
0
11
2781.94883779356
21
3046.51216538641
31
0
0
LINE
8
Základní_vrstva
62
3
10
2781.94883779356
20
3046.51216538641
30
0
11
2781.85503779356
21
3046.71316538641
31
0
0
LINE
8
Základní_vrstva
62
3
10
2781.85503779356
20
3046.71316538641
30
0
11
2781.64063779356
21
3046.82036538641
31
0
0
LINE
8
Základní_vrstva
62
3
10
2781.64063779356
20
3046.82036538641
30
0
11
2781.41953779356
21
3046.88066538641
31
0
0
LINE
8
Základní_vrstva
62
3
10
2781.41953779356
20
3046.88066538641
30
0
11
2781.23863779356
21
3047.00796538641
31
0
0
LINE
8
Základní_vrstva
62
3
10
2781.23863779356
20
3047.00796538641
30
0
11
2781.03093779356
21
3047.10176538641
31
0
0
LINE
8
Základní_vrstva
62
3
10
2781.03093779356
20
3047.10176538641
30
0
11
2780.80983779356
21
3047.04146538641
31
0
0
LINE
8
Základní_vrstva
62
3
10
2780.80983779356
20
3047.04146538641
30
0
11
2780.61553779356
21
3046.94766538641
31
0
0
LINE
8
Základní_vrstva
62
3
10
2780.61553779356
20
3046.94766538641
30
0
11
2780.38773779356
21
3046.92756538641
31
0
0
LINE
8
Základní_vrstva
62
3
10
2780.38773779356
20
3046.92756538641
30
0
11
2780.15993779356
21
3046.87396538641
31
0
0
LINE
8
Základní_vrstva
62
3
10
2780.15993779356
20
3046.87396538641
30
0
11
2780.01923779356
21
3046.67966538641
31
0
0
LINE
8
Základní_vrstva
62
3
10
2780.01923779356
20
3046.67966538641
30
0
11
2779.91873779356
21
3046.47196538641
31
0
0
LINE
8
Základní_vrstva
62
3
10
2779.91873779356
20
3046.47196538641
30
0
11
2779.76463779356
21
3046.31786538641
31
0
0
LINE
8
Základní_vrstva
62
3
10
2779.76463779356
20
3046.31786538641
30
0
11
2779.63063779356
21
3046.11016538641
31
0
0
LINE
8
Základní_vrstva
62
3
10
2779.63063779356
20
3046.11016538641
30
0
11
2779.65073779356
21
3045.88236538641
31
0
0
LINE
8
Základní_vrstva
62
3
10
2779.65073779356
20
3045.88236538641
30
0
11
2779.71103779356
21
3045.67466538641
31
0
0
LINE
8
Základní_vrstva
62
3
10
2779.71103779356
20
3045.67466538641
30
0
11
2779.68423779356
21
3045.45356538641
31
0
0
LINE
8
Základní_vrstva
62
3
10
2779.68423779356
20
3045.45356538641
30
0
11
2779.70433779356
21
3045.22576538641
31
0
0
LINE
8
Základní_vrstva
62
3
10
2779.70433779356
20
3045.22576538641
30
0
11
2779.87183779356
21
3045.05156538641
31
0
0
LINE
8
Základní_vrstva
62
3
10
2779.87183779356
20
3045.05156538641
30
0
11
2780.06613779356
21
3044.91756538641
31
0
0
LINE
8
Základní_vrstva
62
3
10
2780.06613779356
20
3044.91756538641
30
0
11
2780.19343779356
21
3044.73666538641
31
0
0
LINE
8
Základní_vrstva
62
3
10
2780.19343779356
20
3044.73666538641
30
0
11
2780.34083779356
21
3044.58256538641
31
0
0
LINE
8
Základní_vrstva
62
3
10
2780.34083779356
20
3044.58256538641
30
0
11
2780.56863779356
21
3044.56246538641
31
0
0
LINE
8
Základní_vrstva
62
3
10
2780.56863779356
20
3044.56246538641
30
0
11
2780.80313779356
21
3044.58256538641
31
0
0
LINE
8
Základní_vrstva
62
3
10
2780.80313779356
20
3044.58256538641
30
0
11
2781.01753779356
21
3044.52226538641
31
0
0
LINE
8
Základní_vrstva
62
3
10
2781.01753779356
20
3044.52226538641
30
0
11
2781.25203779356
21
3044.50216538641
31
0
0
LINE
8
Základní_vrstva
62
3
10
2781.25203779356
20
3044.50216538641
30
0
11
2781.43963779356
21
3044.62946538641
31
0
0
LINE
8
Základní_vrstva
62
3
10
2781.43963779356
20
3044.62946538641
30
0
11
2781.59373779356
21
3044.79026538641
31
0
0
LINE
8
Základní_vrstva
62
3
10
2781.59373779356
20
3044.79026538641
30
0
11
2781.80143779356
21
3044.88406538641
31
0
0
LINE
8
Základní_vrstva
62
3
10
2781.80143779356
20
3044.88406538641
30
0
11
2781.99573779356
21
3045.02476538641
31
0
0
LINE
8
Základní_vrstva
62
3
10
2781.99573779356
20
3045.02476538641
30
0
11
2782.06273779356
21
3045.25256538641
31
0
0
LINE
8
Základní_vrstva
62
3
10
2782.06273779356
20
3045.25256538641
30
0
11
2782.07613779356
21
3045.48036538641
31
0
0
LINE
8
Základní_vrstva
62
3
10
2782.07613779356
20
3045.48036538641
30
0
11
2782.16993779356
21
3045.69476538641
31
0
0
LINE
8
Základní_vrstva
62
3
10
2782.16993779356
20
3045.69476538641
30
0
11
2782.23023779356
21
3045.88906538641
31
0
0
CIRCLE
8
Základní_vrstva
62
3
10
2780.91033779356
20
3045.78186538641
30
0
40
0.111666666666679
0
LINE
8
Základní_vrstva
62
3
10
2787.28369404356
20
3047.17890913641
30
0
11
2787.20329404356
21
3047.36650913641
31
0
0
LINE
8
Základní_vrstva
62
3
10
2787.20329404356
20
3047.36650913641
30
0
11
2787.06929404356
21
3047.57420913641
31
0
0
LINE
8
Základní_vrstva
62
3
10
2787.06929404356
20
3047.57420913641
30
0
11
2787.00899404356
21
3047.80200913641
31
0
0
LINE
8
Základní_vrstva
62
3
10
2787.00899404356
20
3047.80200913641
30
0
11
2786.91519404356
21
3048.00300913641
31
0
0
LINE
8
Základní_vrstva
62
3
10
2786.91519404356
20
3048.00300913641
30
0
11
2786.70079404356
21
3048.11020913641
31
0
0
LINE
8
Základní_vrstva
62
3
10
2786.70079404356
20
3048.11020913641
30
0
11
2786.47969404356
21
3048.17050913641
31
0
0
LINE
8
Základní_vrstva
62
3
10
2786.47969404356
20
3048.17050913641
30
0
11
2786.29879404356
21
3048.29780913641
31
0
0
LINE
8
Základní_vrstva
62
3
10
2786.29879404356
20
3048.29780913641
30
0
11
2786.09109404356
21
3048.39160913641
31
0
0
LINE
8
Základní_vrstva
62
3
10
2786.09109404356
20
3048.39160913641
30
0
11
2785.86999404356
21
3048.33130913641
31
0
0
LINE
8
Základní_vrstva
62
3
10
2785.86999404356
20
3048.33130913641
30
0
11
2785.67569404356
21
3048.23750913641
31
0
0
LINE
8
Základní_vrstva
62
3
10
2785.67569404356
20
3048.23750913641
30
0
11
2785.44789404356
21
3048.21740913641
31
0
0
LINE
8
Základní_vrstva
62
3
10
2785.44789404356
20
3048.21740913641
30
0
11
2785.22009404356
21
3048.16380913641
31
0
0
LINE
8
Základní_vrstva
62
3
10
2785.22009404356
20
3048.16380913641
30
0
11
2785.07939404356
21
3047.96950913641
31
0
0
LINE
8
Základní_vrstva
62
3
10
2785.07939404356
20
3047.96950913641
30
0
11
2784.97889404356
21
3047.76180913641
31
0
0
LINE
8
Základní_vrstva
62
3
10
2784.97889404356
20
3047.76180913641
30
0
11
2784.82479404356
21
3047.60770913641
31
0
0
LINE
8
Základní_vrstva
62
3
10
2784.82479404356
20
3047.60770913641
30
0
11
2784.69079404356
21
3047.40000913641
31
0
0
LINE
8
Základní_vrstva
62
3
10
2784.69079404356
20
3047.40000913641
30
0
11
2784.71089404356
21
3047.17220913641
31
0
0
LINE
8
Základní_vrstva
62
3
10
2784.71089404356
20
3047.17220913641
30
0
11
2784.77119404356
21
3046.96450913641
31
0
0
LINE
8
Základní_vrstva
62
3
10
2784.77119404356
20
3046.96450913641
30
0
11
2784.74439404356
21
3046.74340913641
31
0
0
LINE
8
Základní_vrstva
62
3
10
2784.74439404356
20
3046.74340913641
30
0
11
2784.76449404356
21
3046.51560913641
31
0
0
LINE
8
Základní_vrstva
62
3
10
2784.76449404356
20
3046.51560913641
30
0
11
2784.93199404356
21
3046.34140913641
31
0
0
LINE
8
Základní_vrstva
62
3
10
2784.93199404356
20
3046.34140913641
30
0
11
2785.12629404356
21
3046.20740913641
31
0
0
LINE
8
Základní_vrstva
62
3
10
2785.12629404356
20
3046.20740913641
30
0
11
2785.25359404356
21
3046.02650913641
31
0
0
LINE
8
Základní_vrstva
62
3
10
2785.25359404356
20
3046.02650913641
30
0
11
2785.40099404356
21
3045.87240913641
31
0
0
LINE
8
Základní_vrstva
62
3
10
2785.40099404356
20
3045.87240913641
30
0
11
2785.62879404356
21
3045.85230913641
31
0
0
LINE
8
Základní_vrstva
62
3
10
2785.62879404356
20
3045.85230913641
30
0
11
2785.86329404356
21
3045.87240913641
31
0
0
LINE
8
Základní_vrstva
62
3
10
2785.86329404356
20
3045.87240913641
30
0
11
2786.07769404356
21
3045.81210913641
31
0
0
LINE
8
Základní_vrstva
62
3
10
2786.07769404356
20
3045.81210913641
30
0
11
2786.31219404356
21
3045.79200913641
31
0
0
LINE
8
Základní_vrstva
62
3
10
2786.31219404356
20
3045.79200913641
30
0
11
2786.49979404356
21
3045.91930913641
31
0
0
LINE
8
Základní_vrstva
62
3
10
2786.49979404356
20
3045.91930913641
30
0
11
2786.65389404356
21
3046.08010913641
31
0
0
LINE
8
Základní_vrstva
62
3
10
2786.65389404356
20
3046.08010913641
30
0
11
2786.86159404356
21
3046.17390913641
31
0
0
LINE
8
Základní_vrstva
62
3
10
2786.86159404356
20
3046.17390913641
30
0
11
2787.05589404356
21
3046.31460913641
31
0
0
LINE
8
Základní_vrstva
62
3
10
2787.05589404356
20
3046.31460913641
30
0
11
2787.12289404356
21
3046.54240913641
31
0
0
LINE
8
Základní_vrstva
62
3
10
2787.12289404356
20
3046.54240913641
30
0
11
2787.13629404356
21
3046.77020913641
31
0
0
LINE
8
Základní_vrstva
62
3
10
2787.13629404356
20
3046.77020913641
30
0
11
2787.23009404356
21
3046.98460913641
31
0
0
LINE
8
Základní_vrstva
62
3
10
2787.23009404356
20
3046.98460913641
30
0
11
2787.29039404356
21
3047.17890913641
31
0
0
CIRCLE
8
Základní_vrstva
62
3
10
2785.97049404356
20
3047.07170913641
30
0
40
0.111666666666679
0
LINE
8
Základní_vrstva
62
3
10
2792.74072529356
20
3048.46875288641
30
0
11
2792.66032529356
21
3048.65635288641
31
0
0
LINE
8
Základní_vrstva
62
3
10
2792.66032529356
20
3048.65635288641
30
0
11
2792.52632529356
21
3048.86405288641
31
0
0
LINE
8
Základní_vrstva
62
3
10
2792.52632529356
20
3048.86405288641
30
0
11
2792.46602529356
21
3049.09185288641
31
0
0
LINE
8
Základní_vrstva
62
3
10
2792.46602529356
20
3049.09185288641
30
0
11
2792.37222529356
21
3049.29285288641
31
0
0
LINE
8
Základní_vrstva
62
3
10
2792.37222529356
20
3049.29285288641
30
0
11
2792.15782529356
21
3049.40005288641
31
0
0
LINE
8
Základní_vrstva
62
3
10
2792.15782529356
20
3049.40005288641
30
0
11
2791.93672529356
21
3049.46035288641
31
0
0
LINE
8
Základní_vrstva
62
3
10
2791.93672529356
20
3049.46035288641
30
0
11
2791.75582529356
21
3049.58765288641
31
0
0
LINE
8
Základní_vrstva
62
3
10
2791.75582529356
20
3049.58765288641
30
0
11
2791.54812529356
21
3049.68145288641
31
0
0
LINE
8
Základní_vrstva
62
3
10
2791.54812529356
20
3049.68145288641
30
0
11
2791.32702529356
21
3049.62115288641
31
0
0
LINE
8
Základní_vrstva
62
3
10
2791.32702529356
20
3049.62115288641
30
0
11
2791.13272529356
21
3049.52735288641
31
0
0
LINE
8
Základní_vrstva
62
3
10
2791.13272529356
20
3049.52735288641
30
0
11
2790.90492529356
21
3049.50725288641
31
0
0
LINE
8
Základní_vrstva
62
3
10
2790.90492529356
20
3049.50725288641
30
0
11
2790.67712529356
21
3049.45365288641
31
0
0
LINE
8
Základní_vrstva
62
3
10
2790.67712529356
20
3049.45365288641
30
0
11
2790.53642529356
21
3049.25935288641
31
0
0
LINE
8
Základní_vrstva
62
3
10
2790.53642529356
20
3049.25935288641
30
0
11
2790.43592529356
21
3049.05165288641
31
0
0
LINE
8
Základní_vrstva
62
3
10
2790.43592529356
20
3049.05165288641
30
0
11
2790.28182529356
21
3048.89755288641
31
0
0
LINE
8
Základní_vrstva
62
3
10
2790.28182529356
20
3048.89755288641
30
0
11
2790.14782529356
21
3048.68985288641
31
0
0
LINE
8
Základní_vrstva
62
3
10
2790.14782529356
20
3048.68985288641
30
0
11
2790.16792529356
21
3048.46205288641
31
0
0
LINE
8
Základní_vrstva
62
3
10
2790.16792529356
20
3048.46205288641
30
0
11
2790.22822529356
21
3048.25435288641
31
0
0
LINE
8
Základní_vrstva
62
3
10
2790.22822529356
20
3048.25435288641
30
0
11
2790.20142529356
21
3048.03325288641
31
0
0
LINE
8
Základní_vrstva
62
3
10
2790.20142529356
20
3048.03325288641
30
0
11
2790.22152529356
21
3047.80545288641
31
0
0
LINE
8
Základní_vrstva
62
3
10
2790.22152529356
20
3047.80545288641
30
0
11
2790.38902529356
21
3047.63125288641
31
0
0
LINE
8
Základní_vrstva
62
3
10
2790.38902529356
20
3047.63125288641
30
0
11
2790.58332529356
21
3047.49725288641
31
0
0
LINE
8
Základní_vrstva
62
3
10
2790.58332529356
20
3047.49725288641
30
0
11
2790.71062529356
21
3047.31635288641
31
0
0
LINE
8
Základní_vrstva
62
3
10
2790.71062529356
20
3047.31635288641
30
0
11
2790.85802529356
21
3047.16225288641
31
0
0
LINE
8
Základní_vrstva
62
3
10
2790.85802529356
20
3047.16225288641
30
0
11
2791.08582529356
21
3047.14215288641
31
0
0
LINE
8
Základní_vrstva
62
3
10
2791.08582529356
20
3047.14215288641
30
0
11
2791.32032529356
21
3047.16225288641
31
0
0
LINE
8
Základní_vrstva
62
3
10
2791.32032529356
20
3047.16225288641
30
0
11
2791.53472529356
21
3047.10195288641
31
0
0
LINE
8
Základní_vrstva
62
3
10
2791.53472529356
20
3047.10195288641
30
0
11
2791.76922529356
21
3047.08185288641
31
0
0
LINE
8
Základní_vrstva
62
3
10
2791.76922529356
20
3047.08185288641
30
0
11
2791.95682529356
21
3047.20915288641
31
0
0
LINE
8
Základní_vrstva
62
3
10
2791.95682529356
20
3047.20915288641
30
0
11
2792.11092529356
21
3047.36995288641
31
0
0
LINE
8
Základní_vrstva
62
3
10
2792.11092529356
20
3047.36995288641
30
0
11
2792.31862529356
21
3047.46375288641
31
0
0
LINE
8
Základní_vrstva
62
3
10
2792.31862529356
20
3047.46375288641
30
0
11
2792.51292529356
21
3047.60445288641
31
0
0
LINE
8
Základní_vrstva
62
3
10
2792.51292529356
20
3047.60445288641
30
0
11
2792.57992529356
21
3047.83225288641
31
0
0
LINE
8
Základní_vrstva
62
3
10
2792.57992529356
20
3047.83225288641
30
0
11
2792.59332529356
21
3048.06005288641
31
0
0
LINE
8
Základní_vrstva
62
3
10
2792.59332529356
20
3048.06005288641
30
0
11
2792.68712529356
21
3048.27445288641
31
0
0
LINE
8
Základní_vrstva
62
3
10
2792.68712529356
20
3048.27445288641
30
0
11
2792.74742529356
21
3048.46875288641
31
0
0
CIRCLE
8
Základní_vrstva
62
3
10
2791.42752529356
20
3048.36155288641
30
0
40
0.111666666666679
0
LINE
8
Základní_vrstva
62
3
10
2798.99150654356
20
3050.15547163641
30
0
11
2798.91110654356
21
3050.34307163641
31
0
0
LINE
8
Základní_vrstva
62
3
10
2798.91110654356
20
3050.34307163641
30
0
11
2798.77710654356
21
3050.55077163641
31
0
0
LINE
8
Základní_vrstva
62
3
10
2798.77710654356
20
3050.55077163641
30
0
11
2798.71680654356
21
3050.77857163641
31
0
0
LINE
8
Základní_vrstva
62
3
10
2798.71680654356
20
3050.77857163641
30
0
11
2798.62300654356
21
3050.97957163641
31
0
0
LINE
8
Základní_vrstva
62
3
10
2798.62300654356
20
3050.97957163641
30
0
11
2798.40860654356
21
3051.08677163641
31
0
0
LINE
8
Základní_vrstva
62
3
10
2798.40860654356
20
3051.08677163641
30
0
11
2798.18750654356
21
3051.14707163641
31
0
0
LINE
8
Základní_vrstva
62
3
10
2798.18750654356
20
3051.14707163641
30
0
11
2798.00660654356
21
3051.27437163641
31
0
0
LINE
8
Základní_vrstva
62
3
10
2798.00660654356
20
3051.27437163641
30
0
11
2797.79890654356
21
3051.36817163641
31
0
0
LINE
8
Základní_vrstva
62
3
10
2797.79890654356
20
3051.36817163641
30
0
11
2797.57780654356
21
3051.30787163641
31
0
0
LINE
8
Základní_vrstva
62
3
10
2797.57780654356
20
3051.30787163641
30
0
11
2797.38350654356
21
3051.21407163641
31
0
0
LINE
8
Základní_vrstva
62
3
10
2797.38350654356
20
3051.21407163641
30
0
11
2797.15570654356
21
3051.19397163641
31
0
0
LINE
8
Základní_vrstva
62
3
10
2797.15570654356
20
3051.19397163641
30
0
11
2796.92790654356
21
3051.14037163641
31
0
0
LINE
8
Základní_vrstva
62
3
10
2796.92790654356
20
3051.14037163641
30
0
11
2796.78720654356
21
3050.94607163641
31
0
0
LINE
8
Základní_vrstva
62
3
10
2796.78720654356
20
3050.94607163641
30
0
11
2796.68670654356
21
3050.73837163641
31
0
0
LINE
8
Základní_vrstva
62
3
10
2796.68670654356
20
3050.73837163641
30
0
11
2796.53260654356
21
3050.58427163641
31
0
0
LINE
8
Základní_vrstva
62
3
10
2796.53260654356
20
3050.58427163641
30
0
11
2796.39860654356
21
3050.37657163641
31
0
0
LINE
8
Základní_vrstva
62
3
10
2796.39860654356
20
3050.37657163641
30
0
11
2796.41870654356
21
3050.14877163641
31
0
0
LINE
8
Základní_vrstva
62
3
10
2796.41870654356
20
3050.14877163641
30
0
11
2796.47900654356
21
3049.94107163641
31
0
0
LINE
8
Základní_vrstva
62
3
10
2796.47900654356
20
3049.94107163641
30
0
11
2796.45220654356
21
3049.71997163641
31
0
0
LINE
8
Základní_vrstva
62
3
10
2796.45220654356
20
3049.71997163641
30
0
11
2796.47230654356
21
3049.49217163641
31
0
0
LINE
8
Základní_vrstva
62
3
10
2796.47230654356
20
3049.49217163641
30
0
11
2796.63980654356
21
3049.31797163641
31
0
0
LINE
8
Základní_vrstva
62
3
10
2796.63980654356
20
3049.31797163641
30
0
11
2796.83410654356
21
3049.18397163641
31
0
0
LINE
8
Základní_vrstva
62
3
10
2796.83410654356
20
3049.18397163641
30
0
11
2796.96140654356
21
3049.00307163641
31
0
0
LINE
8
Základní_vrstva
62
3
10
2796.96140654356
20
3049.00307163641
30
0
11
2797.10880654356
21
3048.84897163641
31
0
0
LINE
8
Základní_vrstva
62
3
10
2797.10880654356
20
3048.84897163641
30
0
11
2797.33660654356
21
3048.82887163641
31
0
0
LINE
8
Základní_vrstva
62
3
10
2797.33660654356
20
3048.82887163641
30
0
11
2797.57110654356
21
3048.84897163641
31
0
0
LINE
8
Základní_vrstva
62
3
10
2797.57110654356
20
3048.84897163641
30
0
11
2797.78550654356
21
3048.78867163641
31
0
0
LINE
8
Základní_vrstva
62
3
10
2797.78550654356
20
3048.78867163641
30
0
11
2798.02000654356
21
3048.76857163641
31
0
0
LINE
8
Základní_vrstva
62
3
10
2798.02000654356
20
3048.76857163641
30
0
11
2798.20760654356
21
3048.89587163641
31
0
0
LINE
8
Základní_vrstva
62
3
10
2798.20760654356
20
3048.89587163641
30
0
11
2798.36170654356
21
3049.05667163641
31
0
0
LINE
8
Základní_vrstva
62
3
10
2798.36170654356
20
3049.05667163641
30
0
11
2798.56940654356
21
3049.15047163641
31
0
0
LINE
8
Základní_vrstva
62
3
10
2798.56940654356
20
3049.15047163641
30
0
11
2798.76370654356
21
3049.29117163641
31
0
0
LINE
8
Základní_vrstva
62
3
10
2798.76370654356
20
3049.29117163641
30
0
11
2798.83070654356
21
3049.51897163641
31
0
0
LINE
8
Základní_vrstva
62
3
10
2798.83070654356
20
3049.51897163641
30
0
11
2798.84410654356
21
3049.74677163641
31
0
0
LINE
8
Základní_vrstva
62
3
10
2798.84410654356
20
3049.74677163641
30
0
11
2798.93790654356
21
3049.96117163641
31
0
0
LINE
8
Základní_vrstva
62
3
10
2798.93790654356
20
3049.96117163641
30
0
11
2798.99820654356
21
3050.15547163641
31
0
0
CIRCLE
8
Základní_vrstva
62
3
10
2797.67830654356
20
3050.04827163641
30
0
40
0.111666666666679
0
LINE
8
Základní_vrstva
62
3
10
2804.54775654356
20
3051.54453413641
30
0
11
2804.46735654356
21
3051.73213413641
31
0
0
LINE
8
Základní_vrstva
62
3
10
2804.46735654356
20
3051.73213413641
30
0
11
2804.33335654356
21
3051.93983413641
31
0
0
LINE
8
Základní_vrstva
62
3
10
2804.33335654356
20
3051.93983413641
30
0
11
2804.27305654356
21
3052.16763413641
31
0
0
LINE
8
Základní_vrstva
62
3
10
2804.27305654356
20
3052.16763413641
30
0
11
2804.17925654356
21
3052.36863413641
31
0
0
LINE
8
Základní_vrstva
62
3
10
2804.17925654356
20
3052.36863413641
30
0
11
2803.96485654356
21
3052.47583413641
31
0
0
LINE
8
Základní_vrstva
62
3
10
2803.96485654356
20
3052.47583413641
30
0
11
2803.74375654356
21
3052.53613413641
31
0
0
LINE
8
Základní_vrstva
62
3
10
2803.74375654356
20
3052.53613413641
30
0
11
2803.56285654356
21
3052.66343413641
31
0
0
LINE
8
Základní_vrstva
62
3
10
2803.56285654356
20
3052.66343413641
30
0
11
2803.35515654356
21
3052.75723413641
31
0
0
LINE
8
Základní_vrstva
62
3
10
2803.35515654356
20
3052.75723413641
30
0
11
2803.13405654356
21
3052.69693413641
31
0
0
LINE
8
Základní_vrstva
62
3
10
2803.13405654356
20
3052.69693413641
30
0
11
2802.93975654356
21
3052.60313413641
31
0
0
LINE
8
Základní_vrstva
62
3
10
2802.93975654356
20
3052.60313413641
30
0
11
2802.71195654356
21
3052.58303413641
31
0
0
LINE
8
Základní_vrstva
62
3
10
2802.71195654356
20
3052.58303413641
30
0
11
2802.48415654356
21
3052.52943413641
31
0
0
LINE
8
Základní_vrstva
62
3
10
2802.48415654356
20
3052.52943413641
30
0
11
2802.34345654356
21
3052.33513413641
31
0
0
LINE
8
Základní_vrstva
62
3
10
2802.34345654356
20
3052.33513413641
30
0
11
2802.24295654356
21
3052.12743413641
31
0
0
LINE
8
Základní_vrstva
62
3
10
2802.24295654356
20
3052.12743413641
30
0
11
2802.08885654356
21
3051.97333413641
31
0
0
LINE
8
Základní_vrstva
62
3
10
2802.08885654356
20
3051.97333413641
30
0
11
2801.95485654356
21
3051.76563413641
31
0
0
LINE
8
Základní_vrstva
62
3
10
2801.95485654356
20
3051.76563413641
30
0
11
2801.97495654356
21
3051.53783413641
31
0
0
LINE
8
Základní_vrstva
62
3
10
2801.97495654356
20
3051.53783413641
30
0
11
2802.03525654356
21
3051.33013413641
31
0
0
LINE
8
Základní_vrstva
62
3
10
2802.03525654356
20
3051.33013413641
30
0
11
2802.00845654356
21
3051.10903413641
31
0
0
LINE
8
Základní_vrstva
62
3
10
2802.00845654356
20
3051.10903413641
30
0
11
2802.02855654356
21
3050.88123413641
31
0
0
LINE
8
Základní_vrstva
62
3
10
2802.02855654356
20
3050.88123413641
30
0
11
2802.19605654356
21
3050.70703413641
31
0
0
LINE
8
Základní_vrstva
62
3
10
2802.19605654356
20
3050.70703413641
30
0
11
2802.39035654356
21
3050.57303413641
31
0
0
LINE
8
Základní_vrstva
62
3
10
2802.39035654356
20
3050.57303413641
30
0
11
2802.51765654356
21
3050.39213413641
31
0
0
LINE
8
Základní_vrstva
62
3
10
2802.51765654356
20
3050.39213413641
30
0
11
2802.66505654356
21
3050.23803413641
31
0
0
LINE
8
Základní_vrstva
62
3
10
2802.66505654356
20
3050.23803413641
30
0
11
2802.89285654356
21
3050.21793413641
31
0
0
LINE
8
Základní_vrstva
62
3
10
2802.89285654356
20
3050.21793413641
30
0
11
2803.12735654356
21
3050.23803413641
31
0
0
LINE
8
Základní_vrstva
62
3
10
2803.12735654356
20
3050.23803413641
30
0
11
2803.34175654356
21
3050.17773413641
31
0
0
LINE
8
Základní_vrstva
62
3
10
2803.34175654356
20
3050.17773413641
30
0
11
2803.57625654356
21
3050.15763413641
31
0
0
LINE
8
Základní_vrstva
62
3
10
2803.57625654356
20
3050.15763413641
30
0
11
2803.76385654356
21
3050.28493413641
31
0
0
LINE
8
Základní_vrstva
62
3
10
2803.76385654356
20
3050.28493413641
30
0
11
2803.91795654356
21
3050.44573413641
31
0
0
LINE
8
Základní_vrstva
62
3
10
2803.91795654356
20
3050.44573413641
30
0
11
2804.12565654356
21
3050.53953413641
31
0
0
LINE
8
Základní_vrstva
62
3
10
2804.12565654356
20
3050.53953413641
30
0
11
2804.31995654356
21
3050.68023413641
31
0
0
LINE
8
Základní_vrstva
62
3
10
2804.31995654356
20
3050.68023413641
30
0
11
2804.38695654356
21
3050.90803413641
31
0
0
LINE
8
Základní_vrstva
62
3
10
2804.38695654356
20
3050.90803413641
30
0
11
2804.40035654356
21
3051.13583413641
31
0
0
LINE
8
Základní_vrstva
62
3
10
2804.40035654356
20
3051.13583413641
30
0
11
2804.49415654356
21
3051.35023413641
31
0
0
LINE
8
Základní_vrstva
62
3
10
2804.49415654356
20
3051.35023413641
30
0
11
2804.55445654356
21
3051.54453413641
31
0
0
CIRCLE
8
Základní_vrstva
62
3
10
2803.23455654356
20
3051.43733413641
30
0
40
0.111666666666679
0
LINE
8
Základní_vrstva
62
3
10
2810.30244404356
20
3052.73515913641
30
0
11
2810.22204404356
21
3052.92275913641
31
0
0
LINE
8
Základní_vrstva
62
3
10
2810.22204404356
20
3052.92275913641
30
0
11
2810.08804404356
21
3053.13045913641
31
0
0
LINE
8
Základní_vrstva
62
3
10
2810.08804404356
20
3053.13045913641
30
0
11
2810.02774404356
21
3053.35825913641
31
0
0
LINE
8
Základní_vrstva
62
3
10
2810.02774404356
20
3053.35825913641
30
0
11
2809.93394404356
21
3053.55925913641
31
0
0
LINE
8
Základní_vrstva
62
3
10
2809.93394404356
20
3053.55925913641
30
0
11
2809.71954404356
21
3053.66645913641
31
0
0
LINE
8
Základní_vrstva
62
3
10
2809.71954404356
20
3053.66645913641
30
0
11
2809.49844404356
21
3053.72675913641
31
0
0
LINE
8
Základní_vrstva
62
3
10
2809.49844404356
20
3053.72675913641
30
0
11
2809.31754404356
21
3053.85405913641
31
0
0
LINE
8
Základní_vrstva
62
3
10
2809.31754404356
20
3053.85405913641
30
0
11
2809.10984404356
21
3053.94785913641
31
0
0
LINE
8
Základní_vrstva
62
3
10
2809.10984404356
20
3053.94785913641
30
0
11
2808.88874404356
21
3053.88755913641
31
0
0
LINE
8
Základní_vrstva
62
3
10
2808.88874404356
20
3053.88755913641
30
0
11
2808.69444404356
21
3053.79375913641
31
0
0
LINE
8
Základní_vrstva
62
3
10
2808.69444404356
20
3053.79375913641
30
0
11
2808.46664404356
21
3053.77365913641
31
0
0
LINE
8
Základní_vrstva
62
3
10
2808.46664404356
20
3053.77365913641
30
0
11
2808.23884404356
21
3053.72005913641
31
0
0
LINE
8
Základní_vrstva
62
3
10
2808.23884404356
20
3053.72005913641
30
0
11
2808.09814404356
21
3053.52575913641
31
0
0
LINE
8
Základní_vrstva
62
3
10
2808.09814404356
20
3053.52575913641
30
0
11
2807.99764404356
21
3053.31805913641
31
0
0
LINE
8
Základní_vrstva
62
3
10
2807.99764404356
20
3053.31805913641
30
0
11
2807.84354404356
21
3053.16395913641
31
0
0
LINE
8
Základní_vrstva
62
3
10
2807.84354404356
20
3053.16395913641
30
0
11
2807.70954404356
21
3052.95625913641
31
0
0
LINE
8
Základní_vrstva
62
3
10
2807.70954404356
20
3052.95625913641
30
0
11
2807.72964404356
21
3052.72845913641
31
0
0
LINE
8
Základní_vrstva
62
3
10
2807.72964404356
20
3052.72845913641
30
0
11
2807.78994404356
21
3052.52075913641
31
0
0
LINE
8
Základní_vrstva
62
3
10
2807.78994404356
20
3052.52075913641
30
0
11
2807.76314404356
21
3052.29965913641
31
0
0
LINE
8
Základní_vrstva
62
3
10
2807.76314404356
20
3052.29965913641
30
0
11
2807.78324404356
21
3052.07185913641
31
0
0
LINE
8
Základní_vrstva
62
3
10
2807.78324404356
20
3052.07185913641
30
0
11
2807.95074404356
21
3051.89765913641
31
0
0
LINE
8
Základní_vrstva
62
3
10
2807.95074404356
20
3051.89765913641
30
0
11
2808.14504404356
21
3051.76365913641
31
0
0
LINE
8
Základní_vrstva
62
3
10
2808.14504404356
20
3051.76365913641
30
0
11
2808.27234404356
21
3051.58275913641
31
0
0
LINE
8
Základní_vrstva
62
3
10
2808.27234404356
20
3051.58275913641
30
0
11
2808.41974404356
21
3051.42865913641
31
0
0
LINE
8
Základní_vrstva
62
3
10
2808.41974404356
20
3051.42865913641
30
0
11
2808.64754404356
21
3051.40855913641
31
0
0
LINE
8
Základní_vrstva
62
3
10
2808.64754404356
20
3051.40855913641
30
0
11
2808.88204404356
21
3051.42865913641
31
0
0
LINE
8
Základní_vrstva
62
3
10
2808.88204404356
20
3051.42865913641
30
0
11
2809.09644404356
21
3051.36835913641
31
0
0
LINE
8
Základní_vrstva
62
3
10
2809.09644404356
20
3051.36835913641
30
0
11
2809.33094404356
21
3051.34825913641
31
0
0
LINE
8
Základní_vrstva
62
3
10
2809.33094404356
20
3051.34825913641
30
0
11
2809.51854404356
21
3051.47555913641
31
0
0
LINE
8
Základní_vrstva
62
3
10
2809.51854404356
20
3051.47555913641
30
0
11
2809.67264404356
21
3051.63635913641
31
0
0
LINE
8
Základní_vrstva
62
3
10
2809.67264404356
20
3051.63635913641
30
0
11
2809.88034404356
21
3051.73015913641
31
0
0
LINE
8
Základní_vrstva
62
3
10
2809.88034404356
20
3051.73015913641
30
0
11
2810.07464404356
21
3051.87085913641
31
0
0
LINE
8
Základní_vrstva
62
3
10
2810.07464404356
20
3051.87085913641
30
0
11
2810.14164404356
21
3052.09865913641
31
0
0
LINE
8
Základní_vrstva
62
3
10
2810.14164404356
20
3052.09865913641
30
0
11
2810.15504404356
21
3052.32645913641
31
0
0
LINE
8
Základní_vrstva
62
3
10
2810.15504404356
20
3052.32645913641
30
0
11
2810.24884404356
21
3052.54085913641
31
0
0
LINE
8
Základní_vrstva
62
3
10
2810.24884404356
20
3052.54085913641
30
0
11
2810.30914404356
21
3052.73515913641
31
0
0
CIRCLE
8
Základní_vrstva
62
3
10
2808.98924404356
20
3052.62795913641
30
0
40
0.111666666666679
0
LINE
8
Základní_vrstva
62
3
10
2816.05713154356
20
3054.22344038641
30
0
11
2815.97673154356
21
3054.41104038641
31
0
0
LINE
8
Základní_vrstva
62
3
10
2815.97673154356
20
3054.41104038641
30
0
11
2815.84273154356
21
3054.61874038641
31
0
0
LINE
8
Základní_vrstva
62
3
10
2815.84273154356
20
3054.61874038641
30
0
11
2815.78243154356
21
3054.84654038641
31
0
0
LINE
8
Základní_vrstva
62
3
10
2815.78243154356
20
3054.84654038641
30
0
11
2815.68863154356
21
3055.04754038641
31
0
0
LINE
8
Základní_vrstva
62
3
10
2815.68863154356
20
3055.04754038641
30
0
11
2815.47423154356
21
3055.15474038641
31
0
0
LINE
8
Základní_vrstva
62
3
10
2815.47423154356
20
3055.15474038641
30
0
11
2815.25313154356
21
3055.21504038641
31
0
0
LINE
8
Základní_vrstva
62
3
10
2815.25313154356
20
3055.21504038641
30
0
11
2815.07223154356
21
3055.34234038641
31
0
0
LINE
8
Základní_vrstva
62
3
10
2815.07223154356
20
3055.34234038641
30
0
11
2814.86453154356
21
3055.43614038641
31
0
0
LINE
8
Základní_vrstva
62
3
10
2814.86453154356
20
3055.43614038641
30
0
11
2814.64343154356
21
3055.37584038641
31
0
0
LINE
8
Základní_vrstva
62
3
10
2814.64343154356
20
3055.37584038641
30
0
11
2814.44913154356
21
3055.28204038641
31
0
0
LINE
8
Základní_vrstva
62
3
10
2814.44913154356
20
3055.28204038641
30
0
11
2814.22133154356
21
3055.26194038641
31
0
0
LINE
8
Základní_vrstva
62
3
10
2814.22133154356
20
3055.26194038641
30
0
11
2813.99353154356
21
3055.20834038641
31
0
0
LINE
8
Základní_vrstva
62
3
10
2813.99353154356
20
3055.20834038641
30
0
11
2813.85283154356
21
3055.01404038641
31
0
0
LINE
8
Základní_vrstva
62
3
10
2813.85283154356
20
3055.01404038641
30
0
11
2813.75233154356
21
3054.80634038641
31
0
0
LINE
8
Základní_vrstva
62
3
10
2813.75233154356
20
3054.80634038641
30
0
11
2813.59823154356
21
3054.65224038641
31
0
0
LINE
8
Základní_vrstva
62
3
10
2813.59823154356
20
3054.65224038641
30
0
11
2813.46423154356
21
3054.44454038641
31
0
0
LINE
8
Základní_vrstva
62
3
10
2813.46423154356
20
3054.44454038641
30
0
11
2813.48433154356
21
3054.21674038641
31
0
0
LINE
8
Základní_vrstva
62
3
10
2813.48433154356
20
3054.21674038641
30
0
11
2813.54463154356
21
3054.00904038641
31
0
0
LINE
8
Základní_vrstva
62
3
10
2813.54463154356
20
3054.00904038641
30
0
11
2813.51783154356
21
3053.78794038641
31
0
0
LINE
8
Základní_vrstva
62
3
10
2813.51783154356
20
3053.78794038641
30
0
11
2813.53793154356
21
3053.56014038641
31
0
0
LINE
8
Základní_vrstva
62
3
10
2813.53793154356
20
3053.56014038641
30
0
11
2813.70543154356
21
3053.38594038641
31
0
0
LINE
8
Základní_vrstva
62
3
10
2813.70543154356
20
3053.38594038641
30
0
11
2813.89973154356
21
3053.25194038641
31
0
0
LINE
8
Základní_vrstva
62
3
10
2813.89973154356
20
3053.25194038641
30
0
11
2814.02703154356
21
3053.07104038641
31
0
0
LINE
8
Základní_vrstva
62
3
10
2814.02703154356
20
3053.07104038641
30
0
11
2814.17443154356
21
3052.91694038641
31
0
0
LINE
8
Základní_vrstva
62
3
10
2814.17443154356
20
3052.91694038641
30
0
11
2814.40223154356
21
3052.89684038641
31
0
0
LINE
8
Základní_vrstva
62
3
10
2814.40223154356
20
3052.89684038641
30
0
11
2814.63673154356
21
3052.91694038641
31
0
0
LINE
8
Základní_vrstva
62
3
10
2814.63673154356
20
3052.91694038641
30
0
11
2814.85113154356
21
3052.85664038641
31
0
0
LINE
8
Základní_vrstva
62
3
10
2814.85113154356
20
3052.85664038641
30
0
11
2815.08563154356
21
3052.83654038641
31
0
0
LINE
8
Základní_vrstva
62
3
10
2815.08563154356
20
3052.83654038641
30
0
11
2815.27323154356
21
3052.96384038641
31
0
0
LINE
8
Základní_vrstva
62
3
10
2815.27323154356
20
3052.96384038641
30
0
11
2815.42733154356
21
3053.12464038641
31
0
0
LINE
8
Základní_vrstva
62
3
10
2815.42733154356
20
3053.12464038641
30
0
11
2815.63503154356
21
3053.21844038641
31
0
0
LINE
8
Základní_vrstva
62
3
10
2815.63503154356
20
3053.21844038641
30
0
11
2815.82933154356
21
3053.35914038641
31
0
0
LINE
8
Základní_vrstva
62
3
10
2815.82933154356
20
3053.35914038641
30
0
11
2815.89633154356
21
3053.58694038641
31
0
0
LINE
8
Základní_vrstva
62
3
10
2815.89633154356
20
3053.58694038641
30
0
11
2815.90973154356
21
3053.81474038641
31
0
0
LINE
8
Základní_vrstva
62
3
10
2815.90973154356
20
3053.81474038641
30
0
11
2816.00353154356
21
3054.02914038641
31
0
0
LINE
8
Základní_vrstva
62
3
10
2816.00353154356
20
3054.02914038641
30
0
11
2816.06383154356
21
3054.22344038641
31
0
0
CIRCLE
8
Základní_vrstva
62
3
10
2814.74393154356
20
3054.11624038641
30
0
40
0.111666666666679
0
LINE
8
Základní_vrstva
62
3
10
2822.40713154356
20
3055.81094038641
30
0
11
2822.32673154356
21
3055.99854038641
31
0
0
LINE
8
Základní_vrstva
62
3
10
2822.32673154356
20
3055.99854038641
30
0
11
2822.19273154356
21
3056.20624038641
31
0
0
LINE
8
Základní_vrstva
62
3
10
2822.19273154356
20
3056.20624038641
30
0
11
2822.13243154356
21
3056.43404038641
31
0
0
LINE
8
Základní_vrstva
62
3
10
2822.13243154356
20
3056.43404038641
30
0
11
2822.03863154356
21
3056.63504038641
31
0
0
LINE
8
Základní_vrstva
62
3
10
2822.03863154356
20
3056.63504038641
30
0
11
2821.82423154356
21
3056.74224038641
31
0
0
LINE
8
Základní_vrstva
62
3
10
2821.82423154356
20
3056.74224038641
30
0
11
2821.60313154356
21
3056.80254038641
31
0
0
LINE
8
Základní_vrstva
62
3
10
2821.60313154356
20
3056.80254038641
30
0
11
2821.42223154356
21
3056.92984038641
31
0
0
LINE
8
Základní_vrstva
62
3
10
2821.42223154356
20
3056.92984038641
30
0
11
2821.21453154356
21
3057.02364038641
31
0
0
LINE
8
Základní_vrstva
62
3
10
2821.21453154356
20
3057.02364038641
30
0
11
2820.99343154356
21
3056.96334038641
31
0
0
LINE
8
Základní_vrstva
62
3
10
2820.99343154356
20
3056.96334038641
30
0
11
2820.79913154356
21
3056.86954038641
31
0
0
LINE
8
Základní_vrstva
62
3
10
2820.79913154356
20
3056.86954038641
30
0
11
2820.57133154356
21
3056.84944038641
31
0
0
LINE
8
Základní_vrstva
62
3
10
2820.57133154356
20
3056.84944038641
30
0
11
2820.34353154356
21
3056.79584038641
31
0
0
LINE
8
Základní_vrstva
62
3
10
2820.34353154356
20
3056.79584038641
30
0
11
2820.20283154356
21
3056.60154038641
31
0
0
LINE
8
Základní_vrstva
62
3
10
2820.20283154356
20
3056.60154038641
30
0
11
2820.10233154356
21
3056.39384038641
31
0
0
LINE
8
Základní_vrstva
62
3
10
2820.10233154356
20
3056.39384038641
30
0
11
2819.94823154356
21
3056.23974038641
31
0
0
LINE
8
Základní_vrstva
62
3
10
2819.94823154356
20
3056.23974038641
30
0
11
2819.81423154356
21
3056.03204038641
31
0
0
LINE
8
Základní_vrstva
62
3
10
2819.81423154356
20
3056.03204038641
30
0
11
2819.83433154356
21
3055.80424038641
31
0
0
LINE
8
Základní_vrstva
62
3
10
2819.83433154356
20
3055.80424038641
30
0
11
2819.89463154356
21
3055.59654038641
31
0
0
LINE
8
Základní_vrstva
62
3
10
2819.89463154356
20
3055.59654038641
30
0
11
2819.86783154356
21
3055.37544038641
31
0
0
LINE
8
Základní_vrstva
62
3
10
2819.86783154356
20
3055.37544038641
30
0
11
2819.88793154356
21
3055.14764038641
31
0
0
LINE
8
Základní_vrstva
62
3
10
2819.88793154356
20
3055.14764038641
30
0
11
2820.05543154356
21
3054.97344038641
31
0
0
LINE
8
Základní_vrstva
62
3
10
2820.05543154356
20
3054.97344038641
30
0
11
2820.24973154356
21
3054.83944038641
31
0
0
LINE
8
Základní_vrstva
62
3
10
2820.24973154356
20
3054.83944038641
30
0
11
2820.37703154356
21
3054.65854038641
31
0
0
LINE
8
Základní_vrstva
62
3
10
2820.37703154356
20
3054.65854038641
30
0
11
2820.52443154356
21
3054.50444038641
31
0
0
LINE
8
Základní_vrstva
62
3
10
2820.52443154356
20
3054.50444038641
30
0
11
2820.75223154356
21
3054.48434038641
31
0
0
LINE
8
Základní_vrstva
62
3
10
2820.75223154356
20
3054.48434038641
30
0
11
2820.98673154356
21
3054.50444038641
31
0
0
LINE
8
Základní_vrstva
62
3
10
2820.98673154356
20
3054.50444038641
30
0
11
2821.20113154356
21
3054.44414038641
31
0
0
LINE
8
Základní_vrstva
62
3
10
2821.20113154356
20
3054.44414038641
30
0
11
2821.43563154356
21
3054.42404038641
31
0
0
LINE
8
Základní_vrstva
62
3
10
2821.43563154356
20
3054.42404038641
30
0
11
2821.62323154356
21
3054.55134038641
31
0
0
LINE
8
Základní_vrstva
62
3
10
2821.62323154356
20
3054.55134038641
30
0
11
2821.77733154356
21
3054.71214038641
31
0
0
LINE
8
Základní_vrstva
62
3
10
2821.77733154356
20
3054.71214038641
30
0
11
2821.98503154356
21
3054.80594038641
31
0
0
LINE
8
Základní_vrstva
62
3
10
2821.98503154356
20
3054.80594038641
30
0
11
2822.17933154356
21
3054.94664038641
31
0
0
LINE
8
Základní_vrstva
62
3
10
2822.17933154356
20
3054.94664038641
30
0
11
2822.24633154356
21
3055.17444038641
31
0
0
LINE
8
Základní_vrstva
62
3
10
2822.24633154356
20
3055.17444038641
30
0
11
2822.25973154356
21
3055.40224038641
31
0
0
LINE
8
Základní_vrstva
62
3
10
2822.25973154356
20
3055.40224038641
30
0
11
2822.35353154356
21
3055.61664038641
31
0
0
LINE
8
Základní_vrstva
62
3
10
2822.35353154356
20
3055.61664038641
30
0
11
2822.41383154356
21
3055.81094038641
31
0
0
CIRCLE
8
Základní_vrstva
62
3
10
2821.09393154356
20
3055.70374038641
30
0
40
0.111666666666679
0
LINE
8
Základní_vrstva
62
3
10
2828.75713154356
20
3057.29922163641
30
0
11
2828.67673154356
21
3057.48682163641
31
0
0
LINE
8
Základní_vrstva
62
3
10
2828.67673154356
20
3057.48682163641
30
0
11
2828.54273154356
21
3057.69452163641
31
0
0
LINE
8
Základní_vrstva
62
3
10
2828.54273154356
20
3057.69452163641
30
0
11
2828.48243154356
21
3057.92232163641
31
0
0
LINE
8
Základní_vrstva
62
3
10
2828.48243154356
20
3057.92232163641
30
0
11
2828.38863154356
21
3058.12332163641
31
0
0
LINE
8
Základní_vrstva
62
3
10
2828.38863154356
20
3058.12332163641
30
0
11
2828.17423154356
21
3058.23052163641
31
0
0
LINE
8
Základní_vrstva
62
3
10
2828.17423154356
20
3058.23052163641
30
0
11
2827.95313154356
21
3058.29082163641
31
0
0
LINE
8
Základní_vrstva
62
3
10
2827.95313154356
20
3058.29082163641
30
0
11
2827.77223154356
21
3058.41812163641
31
0
0
LINE
8
Základní_vrstva
62
3
10
2827.77223154356
20
3058.41812163641
30
0
11
2827.56453154356
21
3058.51192163641
31
0
0
LINE
8
Základní_vrstva
62
3
10
2827.56453154356
20
3058.51192163641
30
0
11
2827.34343154356
21
3058.45162163641
31
0
0
LINE
8
Základní_vrstva
62
3
10
2827.34343154356
20
3058.45162163641
30
0
11
2827.14913154356
21
3058.35782163641
31
0
0
LINE
8
Základní_vrstva
62
3
10
2827.14913154356
20
3058.35782163641
30
0
11
2826.92133154356
21
3058.33772163641
31
0
0
LINE
8
Základní_vrstva
62
3
10
2826.92133154356
20
3058.33772163641
30
0
11
2826.69353154356
21
3058.28412163641
31
0
0
LINE
8
Základní_vrstva
62
3
10
2826.69353154356
20
3058.28412163641
30
0
11
2826.55283154356
21
3058.08982163641
31
0
0
LINE
8
Základní_vrstva
62
3
10
2826.55283154356
20
3058.08982163641
30
0
11
2826.45233154356
21
3057.88212163641
31
0
0
LINE
8
Základní_vrstva
62
3
10
2826.45233154356
20
3057.88212163641
30
0
11
2826.29823154356
21
3057.72802163641
31
0
0
LINE
8
Základní_vrstva
62
3
10
2826.29823154356
20
3057.72802163641
30
0
11
2826.16423154356
21
3057.52032163641
31
0
0
LINE
8
Základní_vrstva
62
3
10
2826.16423154356
20
3057.52032163641
30
0
11
2826.18433154356
21
3057.29252163641
31
0
0
LINE
8
Základní_vrstva
62
3
10
2826.18433154356
20
3057.29252163641
30
0
11
2826.24463154356
21
3057.08482163641
31
0
0
LINE
8
Základní_vrstva
62
3
10
2826.24463154356
20
3057.08482163641
30
0
11
2826.21783154356
21
3056.86372163641
31
0
0
LINE
8
Základní_vrstva
62
3
10
2826.21783154356
20
3056.86372163641
30
0
11
2826.23793154356
21
3056.63592163641
31
0
0
LINE
8
Základní_vrstva
62
3
10
2826.23793154356
20
3056.63592163641
30
0
11
2826.40543154356
21
3056.46172163641
31
0
0
LINE
8
Základní_vrstva
62
3
10
2826.40543154356
20
3056.46172163641
30
0
11
2826.59973154356
21
3056.32772163641
31
0
0
LINE
8
Základní_vrstva
62
3
10
2826.59973154356
20
3056.32772163641
30
0
11
2826.72703154356
21
3056.14682163641
31
0
0
LINE
8
Základní_vrstva
62
3
10
2826.72703154356
20
3056.14682163641
30
0
11
2826.87443154356
21
3055.99272163641
31
0
0
LINE
8
Základní_vrstva
62
3
10
2826.87443154356
20
3055.99272163641
30
0
11
2827.10223154356
21
3055.97262163641
31
0
0
LINE
8
Základní_vrstva
62
3
10
2827.10223154356
20
3055.97262163641
30
0
11
2827.33673154356
21
3055.99272163641
31
0
0
LINE
8
Základní_vrstva
62
3
10
2827.33673154356
20
3055.99272163641
30
0
11
2827.55113154356
21
3055.93242163641
31
0
0
LINE
8
Základní_vrstva
62
3
10
2827.55113154356
20
3055.93242163641
30
0
11
2827.78563154356
21
3055.91232163641
31
0
0
LINE
8
Základní_vrstva
62
3
10
2827.78563154356
20
3055.91232163641
30
0
11
2827.97323154356
21
3056.03962163641
31
0
0
LINE
8
Základní_vrstva
62
3
10
2827.97323154356
20
3056.03962163641
30
0
11
2828.12733154356
21
3056.20042163641
31
0
0
LINE
8
Základní_vrstva
62
3
10
2828.12733154356
20
3056.20042163641
30
0
11
2828.33503154356
21
3056.29422163641
31
0
0
LINE
8
Základní_vrstva
62
3
10
2828.33503154356
20
3056.29422163641
30
0
11
2828.52933154356
21
3056.43492163641
31
0
0
LINE
8
Základní_vrstva
62
3
10
2828.52933154356
20
3056.43492163641
30
0
11
2828.59633154356
21
3056.66272163641
31
0
0
LINE
8
Základní_vrstva
62
3
10
2828.59633154356
20
3056.66272163641
30
0
11
2828.60973154356
21
3056.89052163641
31
0
0
LINE
8
Základní_vrstva
62
3
10
2828.60973154356
20
3056.89052163641
30
0
11
2828.70353154356
21
3057.10492163641
31
0
0
LINE
8
Základní_vrstva
62
3
10
2828.70353154356
20
3057.10492163641
30
0
11
2828.76383154356
21
3057.29922163641
31
0
0
CIRCLE
8
Základní_vrstva
62
3
10
2827.44393154356
20
3057.19202163641
30
0
40
0.111666666666679
0
LINE
8
Základní_vrstva
62
3
10
2834.01572529356
20
3058.48984663641
30
0
11
2833.93532529356
21
3058.67744663641
31
0
0
LINE
8
Základní_vrstva
62
3
10
2833.93532529356
20
3058.67744663641
30
0
11
2833.80132529356
21
3058.88514663641
31
0
0
LINE
8
Základní_vrstva
62
3
10
2833.80132529356
20
3058.88514663641
30
0
11
2833.74102529356
21
3059.11294663641
31
0
0
LINE
8
Základní_vrstva
62
3
10
2833.74102529356
20
3059.11294663641
30
0
11
2833.64722529356
21
3059.31394663641
31
0
0
LINE
8
Základní_vrstva
62
3
10
2833.64722529356
20
3059.31394663641
30
0
11
2833.43282529356
21
3059.42114663641
31
0
0
LINE
8
Základní_vrstva
62
3
10
2833.43282529356
20
3059.42114663641
30
0
11
2833.21172529356
21
3059.48144663641
31
0
0
LINE
8
Základní_vrstva
62
3
10
2833.21172529356
20
3059.48144663641
30
0
11
2833.03082529356
21
3059.60874663641
31
0
0
LINE
8
Základní_vrstva
62
3
10
2833.03082529356
20
3059.60874663641
30
0
11
2832.82312529356
21
3059.70254663641
31
0
0
LINE
8
Základní_vrstva
62
3
10
2832.82312529356
20
3059.70254663641
30
0
11
2832.60202529356
21
3059.64224663641
31
0
0
LINE
8
Základní_vrstva
62
3
10
2832.60202529356
20
3059.64224663641
30
0
11
2832.40772529356
21
3059.54844663641
31
0
0
LINE
8
Základní_vrstva
62
3
10
2832.40772529356
20
3059.54844663641
30
0
11
2832.17992529356
21
3059.52834663641
31
0
0
LINE
8
Základní_vrstva
62
3
10
2832.17992529356
20
3059.52834663641
30
0
11
2831.95212529356
21
3059.47474663641
31
0
0
LINE
8
Základní_vrstva
62
3
10
2831.95212529356
20
3059.47474663641
30
0
11
2831.81142529356
21
3059.28044663641
31
0
0
LINE
8
Základní_vrstva
62
3
10
2831.81142529356
20
3059.28044663641
30
0
11
2831.71092529356
21
3059.07274663641
31
0
0
LINE
8
Základní_vrstva
62
3
10
2831.71092529356
20
3059.07274663641
30
0
11
2831.55682529356
21
3058.91864663641
31
0
0
LINE
8
Základní_vrstva
62
3
10
2831.55682529356
20
3058.91864663641
30
0
11
2831.42282529356
21
3058.71094663641
31
0
0
LINE
8
Základní_vrstva
62
3
10
2831.42282529356
20
3058.71094663641
30
0
11
2831.44292529356
21
3058.48314663641
31
0
0
LINE
8
Základní_vrstva
62
3
10
2831.44292529356
20
3058.48314663641
30
0
11
2831.50322529356
21
3058.27544663641
31
0
0
LINE
8
Základní_vrstva
62
3
10
2831.50322529356
20
3058.27544663641
30
0
11
2831.47642529356
21
3058.05434663641
31
0
0
LINE
8
Základní_vrstva
62
3
10
2831.47642529356
20
3058.05434663641
30
0
11
2831.49652529356
21
3057.82654663641
31
0
0
LINE
8
Základní_vrstva
62
3
10
2831.49652529356
20
3057.82654663641
30
0
11
2831.66402529356
21
3057.65234663641
31
0
0
LINE
8
Základní_vrstva
62
3
10
2831.66402529356
20
3057.65234663641
30
0
11
2831.85832529356
21
3057.51834663641
31
0
0
LINE
8
Základní_vrstva
62
3
10
2831.85832529356
20
3057.51834663641
30
0
11
2831.98562529356
21
3057.33744663641
31
0
0
LINE
8
Základní_vrstva
62
3
10
2831.98562529356
20
3057.33744663641
30
0
11
2832.13302529356
21
3057.18334663641
31
0
0
LINE
8
Základní_vrstva
62
3
10
2832.13302529356
20
3057.18334663641
30
0
11
2832.36082529356
21
3057.16324663641
31
0
0
LINE
8
Základní_vrstva
62
3
10
2832.36082529356
20
3057.16324663641
30
0
11
2832.59532529356
21
3057.18334663641
31
0
0
LINE
8
Základní_vrstva
62
3
10
2832.59532529356
20
3057.18334663641
30
0
11
2832.80972529356
21
3057.12304663641
31
0
0
LINE
8
Základní_vrstva
62
3
10
2832.80972529356
20
3057.12304663641
30
0
11
2833.04422529356
21
3057.10294663641
31
0
0
LINE
8
Základní_vrstva
62
3
10
2833.04422529356
20
3057.10294663641
30
0
11
2833.23182529356
21
3057.23024663641
31
0
0
LINE
8
Základní_vrstva
62
3
10
2833.23182529356
20
3057.23024663641
30
0
11
2833.38592529356
21
3057.39104663641
31
0
0
LINE
8
Základní_vrstva
62
3
10
2833.38592529356
20
3057.39104663641
30
0
11
2833.59362529356
21
3057.48484663641
31
0
0
LINE
8
Základní_vrstva
62
3
10
2833.59362529356
20
3057.48484663641
30
0
11
2833.78792529356
21
3057.62554663641
31
0
0
LINE
8
Základní_vrstva
62
3
10
2833.78792529356
20
3057.62554663641
30
0
11
2833.85492529356
21
3057.85334663641
31
0
0
LINE
8
Základní_vrstva
62
3
10
2833.85492529356
20
3057.85334663641
30
0
11
2833.86832529356
21
3058.08114663641
31
0
0
LINE
8
Základní_vrstva
62
3
10
2833.86832529356
20
3058.08114663641
30
0
11
2833.96212529356
21
3058.29554663641
31
0
0
LINE
8
Základní_vrstva
62
3
10
2833.96212529356
20
3058.29554663641
30
0
11
2834.02242529356
21
3058.48984663641
31
0
0
CIRCLE
8
Základní_vrstva
62
3
10
2832.70252529356
20
3058.38264663641
30
0
40
0.111666666666679
0
LINE
8
Základní_vrstva
62
3
10
2840.06806904356
20
3059.97812788641
30
0
11
2839.98766904356
21
3060.16572788641
31
0
0
LINE
8
Základní_vrstva
62
3
10
2839.98766904356
20
3060.16572788641
30
0
11
2839.85366904356
21
3060.37342788641
31
0
0
LINE
8
Základní_vrstva
62
3
10
2839.85366904356
20
3060.37342788641
30
0
11
2839.79336904356
21
3060.60122788641
31
0
0
LINE
8
Základní_vrstva
62
3
10
2839.79336904356
20
3060.60122788641
30
0
11
2839.69956904356
21
3060.80222788641
31
0
0
LINE
8
Základní_vrstva
62
3
10
2839.69956904356
20
3060.80222788641
30
0
11
2839.48516904356
21
3060.90942788641
31
0
0
LINE
8
Základní_vrstva
62
3
10
2839.48516904356
20
3060.90942788641
30
0
11
2839.26406904356
21
3060.96972788641
31
0
0
LINE
8
Základní_vrstva
62
3
10
2839.26406904356
20
3060.96972788641
30
0
11
2839.08316904356
21
3061.09702788641
31
0
0
LINE
8
Základní_vrstva
62
3
10
2839.08316904356
20
3061.09702788641
30
0
11
2838.87546904356
21
3061.19082788641
31
0
0
LINE
8
Základní_vrstva
62
3
10
2838.87546904356
20
3061.19082788641
30
0
11
2838.65436904356
21
3061.13052788641
31
0
0
LINE
8
Základní_vrstva
62
3
10
2838.65436904356
20
3061.13052788641
30
0
11
2838.46006904356
21
3061.03672788641
31
0
0
LINE
8
Základní_vrstva
62
3
10
2838.46006904356
20
3061.03672788641
30
0
11
2838.23226904356
21
3061.01662788641
31
0
0
LINE
8
Základní_vrstva
62
3
10
2838.23226904356
20
3061.01662788641
30
0
11
2838.00446904356
21
3060.96302788641
31
0
0
LINE
8
Základní_vrstva
62
3
10
2838.00446904356
20
3060.96302788641
30
0
11
2837.86376904356
21
3060.76872788641
31
0
0
LINE
8
Základní_vrstva
62
3
10
2837.86376904356
20
3060.76872788641
30
0
11
2837.76326904356
21
3060.56102788641
31
0
0
LINE
8
Základní_vrstva
62
3
10
2837.76326904356
20
3060.56102788641
30
0
11
2837.60916904356
21
3060.40692788641
31
0
0
LINE
8
Základní_vrstva
62
3
10
2837.60916904356
20
3060.40692788641
30
0
11
2837.47516904356
21
3060.19922788641
31
0
0
LINE
8
Základní_vrstva
62
3
10
2837.47516904356
20
3060.19922788641
30
0
11
2837.49526904356
21
3059.97142788641
31
0
0
LINE
8
Základní_vrstva
62
3
10
2837.49526904356
20
3059.97142788641
30
0
11
2837.55556904356
21
3059.76372788641
31
0
0
LINE
8
Základní_vrstva
62
3
10
2837.55556904356
20
3059.76372788641
30
0
11
2837.52876904356
21
3059.54262788641
31
0
0
LINE
8
Základní_vrstva
62
3
10
2837.52876904356
20
3059.54262788641
30
0
11
2837.54886904356
21
3059.31482788641
31
0
0
LINE
8
Základní_vrstva
62
3
10
2837.54886904356
20
3059.31482788641
30
0
11
2837.71636904356
21
3059.14062788641
31
0
0
LINE
8
Základní_vrstva
62
3
10
2837.71636904356
20
3059.14062788641
30
0
11
2837.91066904356
21
3059.00662788641
31
0
0
LINE
8
Základní_vrstva
62
3
10
2837.91066904356
20
3059.00662788641
30
0
11
2838.03796904356
21
3058.82572788641
31
0
0
LINE
8
Základní_vrstva
62
3
10
2838.03796904356
20
3058.82572788641
30
0
11
2838.18536904356
21
3058.67162788641
31
0
0
LINE
8
Základní_vrstva
62
3
10
2838.18536904356
20
3058.67162788641
30
0
11
2838.41316904356
21
3058.65152788641
31
0
0
LINE
8
Základní_vrstva
62
3
10
2838.41316904356
20
3058.65152788641
30
0
11
2838.64766904356
21
3058.67162788641
31
0
0
LINE
8
Základní_vrstva
62
3
10
2838.64766904356
20
3058.67162788641
30
0
11
2838.86206904356
21
3058.61132788641
31
0
0
LINE
8
Základní_vrstva
62
3
10
2838.86206904356
20
3058.61132788641
30
0
11
2839.09656904356
21
3058.59122788641
31
0
0
LINE
8
Základní_vrstva
62
3
10
2839.09656904356
20
3058.59122788641
30
0
11
2839.28416904356
21
3058.71852788641
31
0
0
LINE
8
Základní_vrstva
62
3
10
2839.28416904356
20
3058.71852788641
30
0
11
2839.43826904356
21
3058.87932788641
31
0
0
LINE
8
Základní_vrstva
62
3
10
2839.43826904356
20
3058.87932788641
30
0
11
2839.64596904356
21
3058.97312788641
31
0
0
LINE
8
Základní_vrstva
62
3
10
2839.64596904356
20
3058.97312788641
30
0
11
2839.84026904356
21
3059.11382788641
31
0
0
LINE
8
Základní_vrstva
62
3
10
2839.84026904356
20
3059.11382788641
30
0
11
2839.90726904356
21
3059.34162788641
31
0
0
LINE
8
Základní_vrstva
62
3
10
2839.90726904356
20
3059.34162788641
30
0
11
2839.92066904356
21
3059.56942788641
31
0
0
LINE
8
Základní_vrstva
62
3
10
2839.92066904356
20
3059.56942788641
30
0
11
2840.01446904356
21
3059.78382788641
31
0
0
LINE
8
Základní_vrstva
62
3
10
2840.01446904356
20
3059.78382788641
30
0
11
2840.07476904356
21
3059.97812788641
31
0
0
CIRCLE
8
Základní_vrstva
62
3
10
2838.75486904356
20
3059.87092788641
30
0
40
0.111666666666679
0
LINE
8
Základní_vrstva
62
3
10
2845.62431904356
20
3061.36719038641
30
0
11
2845.54391904356
21
3061.55479038641
31
0
0
LINE
8
Základní_vrstva
62
3
10
2845.54391904356
20
3061.55479038641
30
0
11
2845.40991904356
21
3061.76249038641
31
0
0
LINE
8
Základní_vrstva
62
3
10
2845.40991904356
20
3061.76249038641
30
0
11
2845.34961904356
21
3061.99029038641
31
0
0
LINE
8
Základní_vrstva
62
3
10
2845.34961904356
20
3061.99029038641
30
0
11
2845.25581904356
21
3062.19129038641
31
0
0
LINE
8
Základní_vrstva
62
3
10
2845.25581904356
20
3062.19129038641
30
0
11
2845.04141904356
21
3062.29849038641
31
0
0
LINE
8
Základní_vrstva
62
3
10
2845.04141904356
20
3062.29849038641
30
0
11
2844.82031904356
21
3062.35879038641
31
0
0
LINE
8
Základní_vrstva
62
3
10
2844.82031904356
20
3062.35879038641
30
0
11
2844.63941904356
21
3062.48609038641
31
0
0
LINE
8
Základní_vrstva
62
3
10
2844.63941904356
20
3062.48609038641
30
0
11
2844.43171904356
21
3062.57989038641
31
0
0
LINE
8
Základní_vrstva
62
3
10
2844.43171904356
20
3062.57989038641
30
0
11
2844.21061904356
21
3062.51959038641
31
0
0
LINE
8
Základní_vrstva
62
3
10
2844.21061904356
20
3062.51959038641
30
0
11
2844.01631904356
21
3062.42579038641
31
0
0
LINE
8
Základní_vrstva
62
3
10
2844.01631904356
20
3062.42579038641
30
0
11
2843.78851904356
21
3062.40569038641
31
0
0
LINE
8
Základní_vrstva
62
3
10
2843.78851904356
20
3062.40569038641
30
0
11
2843.56071904356
21
3062.35209038641
31
0
0
LINE
8
Základní_vrstva
62
3
10
2843.56071904356
20
3062.35209038641
30
0
11
2843.42001904356
21
3062.15779038641
31
0
0
LINE
8
Základní_vrstva
62
3
10
2843.42001904356
20
3062.15779038641
30
0
11
2843.31951904356
21
3061.95009038641
31
0
0
LINE
8
Základní_vrstva
62
3
10
2843.31951904356
20
3061.95009038641
30
0
11
2843.16541904356
21
3061.79599038641
31
0
0
LINE
8
Základní_vrstva
62
3
10
2843.16541904356
20
3061.79599038641
30
0
11
2843.03141904356
21
3061.58829038641
31
0
0
LINE
8
Základní_vrstva
62
3
10
2843.03141904356
20
3061.58829038641
30
0
11
2843.05151904356
21
3061.36049038641
31
0
0
LINE
8
Základní_vrstva
62
3
10
2843.05151904356
20
3061.36049038641
30
0
11
2843.11181904356
21
3061.15279038641
31
0
0
LINE
8
Základní_vrstva
62
3
10
2843.11181904356
20
3061.15279038641
30
0
11
2843.08501904356
21
3060.93169038641
31
0
0
LINE
8
Základní_vrstva
62
3
10
2843.08501904356
20
3060.93169038641
30
0
11
2843.10511904356
21
3060.70389038641
31
0
0
LINE
8
Základní_vrstva
62
3
10
2843.10511904356
20
3060.70389038641
30
0
11
2843.27261904356
21
3060.52969038641
31
0
0
LINE
8
Základní_vrstva
62
3
10
2843.27261904356
20
3060.52969038641
30
0
11
2843.46691904356
21
3060.39569038641
31
0
0
LINE
8
Základní_vrstva
62
3
10
2843.46691904356
20
3060.39569038641
30
0
11
2843.59421904356
21
3060.21479038641
31
0
0
LINE
8
Základní_vrstva
62
3
10
2843.59421904356
20
3060.21479038641
30
0
11
2843.74161904356
21
3060.06069038641
31
0
0
LINE
8
Základní_vrstva
62
3
10
2843.74161904356
20
3060.06069038641
30
0
11
2843.96941904356
21
3060.04059038641
31
0
0
LINE
8
Základní_vrstva
62
3
10
2843.96941904356
20
3060.04059038641
30
0
11
2844.20391904356
21
3060.06069038641
31
0
0
LINE
8
Základní_vrstva
62
3
10
2844.20391904356
20
3060.06069038641
30
0
11
2844.41831904356
21
3060.00039038641
31
0
0
LINE
8
Základní_vrstva
62
3
10
2844.41831904356
20
3060.00039038641
30
0
11
2844.65281904356
21
3059.98029038641
31
0
0
LINE
8
Základní_vrstva
62
3
10
2844.65281904356
20
3059.98029038641
30
0
11
2844.84041904356
21
3060.10759038641
31
0
0
LINE
8
Základní_vrstva
62
3
10
2844.84041904356
20
3060.10759038641
30
0
11
2844.99451904356
21
3060.26839038641
31
0
0
LINE
8
Základní_vrstva
62
3
10
2844.99451904356
20
3060.26839038641
30
0
11
2845.20221904356
21
3060.36219038641
31
0
0
LINE
8
Základní_vrstva
62
3
10
2845.20221904356
20
3060.36219038641
30
0
11
2845.39651904356
21
3060.50289038641
31
0
0
LINE
8
Základní_vrstva
62
3
10
2845.39651904356
20
3060.50289038641
30
0
11
2845.46351904356
21
3060.73069038641
31
0
0
LINE
8
Základní_vrstva
62
3
10
2845.46351904356
20
3060.73069038641
30
0
11
2845.47691904356
21
3060.95849038641
31
0
0
LINE
8
Základní_vrstva
62
3
10
2845.47691904356
20
3060.95849038641
30
0
11
2845.57071904356
21
3061.17289038641
31
0
0
LINE
8
Základní_vrstva
62
3
10
2845.57071904356
20
3061.17289038641
30
0
11
2845.63101904356
21
3061.36719038641
31
0
0
CIRCLE
8
Základní_vrstva
62
3
10
2844.31111904356
20
3061.25999038641
30
0
40
0.111666666666679
0
LINE
8
Základní_vrstva
62
3
10
2851.37900654356
20
3062.65703413641
30
0
11
2851.29860654356
21
3062.84463413641
31
0
0
LINE
8
Základní_vrstva
62
3
10
2851.29860654356
20
3062.84463413641
30
0
11
2851.16460654356
21
3063.05233413641
31
0
0
LINE
8
Základní_vrstva
62
3
10
2851.16460654356
20
3063.05233413641
30
0
11
2851.10430654356
21
3063.28013413641
31
0
0
LINE
8
Základní_vrstva
62
3
10
2851.10430654356
20
3063.28013413641
30
0
11
2851.01050654356
21
3063.48113413641
31
0
0
LINE
8
Základní_vrstva
62
3
10
2851.01050654356
20
3063.48113413641
30
0
11
2850.79610654356
21
3063.58833413641
31
0
0
LINE
8
Základní_vrstva
62
3
10
2850.79610654356
20
3063.58833413641
30
0
11
2850.57500654356
21
3063.64863413641
31
0
0
LINE
8
Základní_vrstva
62
3
10
2850.57500654356
20
3063.64863413641
30
0
11
2850.39410654356
21
3063.77593413641
31
0
0
LINE
8
Základní_vrstva
62
3
10
2850.39410654356
20
3063.77593413641
30
0
11
2850.18640654356
21
3063.86973413641
31
0
0
LINE
8
Základní_vrstva
62
3
10
2850.18640654356
20
3063.86973413641
30
0
11
2849.96530654356
21
3063.80943413641
31
0
0
LINE
8
Základní_vrstva
62
3
10
2849.96530654356
20
3063.80943413641
30
0
11
2849.77100654356
21
3063.71563413641
31
0
0
LINE
8
Základní_vrstva
62
3
10
2849.77100654356
20
3063.71563413641
30
0
11
2849.54320654356
21
3063.69553413641
31
0
0
LINE
8
Základní_vrstva
62
3
10
2849.54320654356
20
3063.69553413641
30
0
11
2849.31540654356
21
3063.64193413641
31
0
0
LINE
8
Základní_vrstva
62
3
10
2849.31540654356
20
3063.64193413641
30
0
11
2849.17470654356
21
3063.44763413641
31
0
0
LINE
8
Základní_vrstva
62
3
10
2849.17470654356
20
3063.44763413641
30
0
11
2849.07420654356
21
3063.23993413641
31
0
0
LINE
8
Základní_vrstva
62
3
10
2849.07420654356
20
3063.23993413641
30
0
11
2848.92010654356
21
3063.08583413641
31
0
0
LINE
8
Základní_vrstva
62
3
10
2848.92010654356
20
3063.08583413641
30
0
11
2848.78610654356
21
3062.87813413641
31
0
0
LINE
8
Základní_vrstva
62
3
10
2848.78610654356
20
3062.87813413641
30
0
11
2848.80620654356
21
3062.65033413641
31
0
0
LINE
8
Základní_vrstva
62
3
10
2848.80620654356
20
3062.65033413641
30
0
11
2848.86650654356
21
3062.44263413641
31
0
0
LINE
8
Základní_vrstva
62
3
10
2848.86650654356
20
3062.44263413641
30
0
11
2848.83970654356
21
3062.22153413641
31
0
0
LINE
8
Základní_vrstva
62
3
10
2848.83970654356
20
3062.22153413641
30
0
11
2848.85980654356
21
3061.99373413641
31
0
0
LINE
8
Základní_vrstva
62
3
10
2848.85980654356
20
3061.99373413641
30
0
11
2849.02730654356
21
3061.81953413641
31
0
0
LINE
8
Základní_vrstva
62
3
10
2849.02730654356
20
3061.81953413641
30
0
11
2849.22160654356
21
3061.68553413641
31
0
0
LINE
8
Základní_vrstva
62
3
10
2849.22160654356
20
3061.68553413641
30
0
11
2849.34890654356
21
3061.50463413641
31
0
0
LINE
8
Základní_vrstva
62
3
10
2849.34890654356
20
3061.50463413641
30
0
11
2849.49630654356
21
3061.35053413641
31
0
0
LINE
8
Základní_vrstva
62
3
10
2849.49630654356
20
3061.35053413641
30
0
11
2849.72410654356
21
3061.33043413641
31
0
0
LINE
8
Základní_vrstva
62
3
10
2849.72410654356
20
3061.33043413641
30
0
11
2849.95860654356
21
3061.35053413641
31
0
0
LINE
8
Základní_vrstva
62
3
10
2849.95860654356
20
3061.35053413641
30
0
11
2850.17300654356
21
3061.29023413641
31
0
0
LINE
8
Základní_vrstva
62
3
10
2850.17300654356
20
3061.29023413641
30
0
11
2850.40750654356
21
3061.27013413641
31
0
0
LINE
8
Základní_vrstva
62
3
10
2850.40750654356
20
3061.27013413641
30
0
11
2850.59510654356
21
3061.39743413641
31
0
0
LINE
8
Základní_vrstva
62
3
10
2850.59510654356
20
3061.39743413641
30
0
11
2850.74920654356
21
3061.55823413641
31
0
0
LINE
8
Základní_vrstva
62
3
10
2850.74920654356
20
3061.55823413641
30
0
11
2850.95690654356
21
3061.65203413641
31
0
0
LINE
8
Základní_vrstva
62
3
10
2850.95690654356
20
3061.65203413641
30
0
11
2851.15120654356
21
3061.79273413641
31
0
0
LINE
8
Základní_vrstva
62
3
10
2851.15120654356
20
3061.79273413641
30
0
11
2851.21820654356
21
3062.02053413641
31
0
0
LINE
8
Základní_vrstva
62
3
10
2851.21820654356
20
3062.02053413641
30
0
11
2851.23160654356
21
3062.24833413641
31
0
0
LINE
8
Základní_vrstva
62
3
10
2851.23160654356
20
3062.24833413641
30
0
11
2851.32540654356
21
3062.46273413641
31
0
0
LINE
8
Základní_vrstva
62
3
10
2851.32540654356
20
3062.46273413641
30
0
11
2851.38570654356
21
3062.65703413641
31
0
0
CIRCLE
8
Základní_vrstva
62
3
10
2850.06580654356
20
3062.54983413641
30
0
40
0.111666666666679
0
LINE
8
Základní_vrstva
62
3
10
2856.63760029356
20
3063.74844038641
30
0
11
2856.55720029356
21
3063.93604038641
31
0
0
LINE
8
Základní_vrstva
62
3
10
2856.55720029356
20
3063.93604038641
30
0
11
2856.42320029356
21
3064.14374038641
31
0
0
LINE
8
Základní_vrstva
62
3
10
2856.42320029356
20
3064.14374038641
30
0
11
2856.36290029356
21
3064.37154038641
31
0
0
LINE
8
Základní_vrstva
62
3
10
2856.36290029356
20
3064.37154038641
30
0
11
2856.26910029356
21
3064.57254038641
31
0
0
LINE
8
Základní_vrstva
62
3
10
2856.26910029356
20
3064.57254038641
30
0
11
2856.05470029356
21
3064.67974038641
31
0
0
LINE
8
Základní_vrstva
62
3
10
2856.05470029356
20
3064.67974038641
30
0
11
2855.83360029356
21
3064.74004038641
31
0
0
LINE
8
Základní_vrstva
62
3
10
2855.83360029356
20
3064.74004038641
30
0
11
2855.65270029356
21
3064.86734038641
31
0
0
LINE
8
Základní_vrstva
62
3
10
2855.65270029356
20
3064.86734038641
30
0
11
2855.44500029356
21
3064.96114038641
31
0
0
LINE
8
Základní_vrstva
62
3
10
2855.44500029356
20
3064.96114038641
30
0
11
2855.22390029356
21
3064.90084038641
31
0
0
LINE
8
Základní_vrstva
62
3
10
2855.22390029356
20
3064.90084038641
30
0
11
2855.02960029356
21
3064.80704038641
31
0
0
LINE
8
Základní_vrstva
62
3
10
2855.02960029356
20
3064.80704038641
30
0
11
2854.80180029356
21
3064.78694038641
31
0
0
LINE
8
Základní_vrstva
62
3
10
2854.80180029356
20
3064.78694038641
30
0
11
2854.57400029356
21
3064.73334038641
31
0
0
LINE
8
Základní_vrstva
62
3
10
2854.57400029356
20
3064.73334038641
30
0
11
2854.43330029356
21
3064.53904038641
31
0
0
LINE
8
Základní_vrstva
62
3
10
2854.43330029356
20
3064.53904038641
30
0
11
2854.33280029356
21
3064.33134038641
31
0
0
LINE
8
Základní_vrstva
62
3
10
2854.33280029356
20
3064.33134038641
30
0
11
2854.17870029356
21
3064.17724038641
31
0
0
LINE
8
Základní_vrstva
62
3
10
2854.17870029356
20
3064.17724038641
30
0
11
2854.04470029356
21
3063.96954038641
31
0
0
LINE
8
Základní_vrstva
62
3
10
2854.04470029356
20
3063.96954038641
30
0
11
2854.06480029356
21
3063.74174038641
31
0
0
LINE
8
Základní_vrstva
62
3
10
2854.06480029356
20
3063.74174038641
30
0
11
2854.12510029356
21
3063.53404038641
31
0
0
LINE
8
Základní_vrstva
62
3
10
2854.12510029356
20
3063.53404038641
30
0
11
2854.09830029356
21
3063.31294038641
31
0
0
LINE
8
Základní_vrstva
62
3
10
2854.09830029356
20
3063.31294038641
30
0
11
2854.11840029356
21
3063.08514038641
31
0
0
LINE
8
Základní_vrstva
62
3
10
2854.11840029356
20
3063.08514038641
30
0
11
2854.28590029356
21
3062.91094038641
31
0
0
LINE
8
Základní_vrstva
62
3
10
2854.28590029356
20
3062.91094038641
30
0
11
2854.48020029356
21
3062.77694038641
31
0
0
LINE
8
Základní_vrstva
62
3
10
2854.48020029356
20
3062.77694038641
30
0
11
2854.60750029356
21
3062.59604038641
31
0
0
LINE
8
Základní_vrstva
62
3
10
2854.60750029356
20
3062.59604038641
30
0
11
2854.75490029356
21
3062.44194038641
31
0
0
LINE
8
Základní_vrstva
62
3
10
2854.75490029356
20
3062.44194038641
30
0
11
2854.98270029356
21
3062.42184038641
31
0
0
LINE
8
Základní_vrstva
62
3
10
2854.98270029356
20
3062.42184038641
30
0
11
2855.21720029356
21
3062.44194038641
31
0
0
LINE
8
Základní_vrstva
62
3
10
2855.21720029356
20
3062.44194038641
30
0
11
2855.43160029356
21
3062.38164038641
31
0
0
LINE
8
Základní_vrstva
62
3
10
2855.43160029356
20
3062.38164038641
30
0
11
2855.66610029356
21
3062.36154038641
31
0
0
LINE
8
Základní_vrstva
62
3
10
2855.66610029356
20
3062.36154038641
30
0
11
2855.85370029356
21
3062.48884038641
31
0
0
LINE
8
Základní_vrstva
62
3
10
2855.85370029356
20
3062.48884038641
30
0
11
2856.00780029356
21
3062.64964038641
31
0
0
LINE
8
Základní_vrstva
62
3
10
2856.00780029356
20
3062.64964038641
30
0
11
2856.21550029356
21
3062.74344038641
31
0
0
LINE
8
Základní_vrstva
62
3
10
2856.21550029356
20
3062.74344038641
30
0
11
2856.40980029356
21
3062.88414038641
31
0
0
LINE
8
Základní_vrstva
62
3
10
2856.40980029356
20
3062.88414038641
30
0
11
2856.47680029356
21
3063.11194038641
31
0
0
LINE
8
Základní_vrstva
62
3
10
2856.47680029356
20
3063.11194038641
30
0
11
2856.49020029356
21
3063.33974038641
31
0
0
LINE
8
Základní_vrstva
62
3
10
2856.49020029356
20
3063.33974038641
30
0
11
2856.58400029356
21
3063.55414038641
31
0
0
LINE
8
Základní_vrstva
62
3
10
2856.58400029356
20
3063.55414038641
30
0
11
2856.64430029356
21
3063.74844038641
31
0
0
CIRCLE
8
Základní_vrstva
62
3
10
2855.32440029356
20
3063.64124038641
30
0
40
0.111666666666679
0
LINE
8
Základní_vrstva
62
3
10
2861.99541279356
20
3065.03828413641
30
0
11
2861.91501279356
21
3065.22588413641
31
0
0
LINE
8
Základní_vrstva
62
3
10
2861.91501279356
20
3065.22588413641
30
0
11
2861.78101279356
21
3065.43358413641
31
0
0
LINE
8
Základní_vrstva
62
3
10
2861.78101279356
20
3065.43358413641
30
0
11
2861.72071279356
21
3065.66138413641
31
0
0
LINE
8
Základní_vrstva
62
3
10
2861.72071279356
20
3065.66138413641
30
0
11
2861.62691279356
21
3065.86238413641
31
0
0
LINE
8
Základní_vrstva
62
3
10
2861.62691279356
20
3065.86238413641
30
0
11
2861.41251279356
21
3065.96958413641
31
0
0
LINE
8
Základní_vrstva
62
3
10
2861.41251279356
20
3065.96958413641
30
0
11
2861.19141279356
21
3066.02988413641
31
0
0
LINE
8
Základní_vrstva
62
3
10
2861.19141279356
20
3066.02988413641
30
0
11
2861.01051279356
21
3066.15718413641
31
0
0
LINE
8
Základní_vrstva
62
3
10
2861.01051279356
20
3066.15718413641
30
0
11
2860.80281279356
21
3066.25098413641
31
0
0
LINE
8
Základní_vrstva
62
3
10
2860.80281279356
20
3066.25098413641
30
0
11
2860.58171279356
21
3066.19068413641
31
0
0
LINE
8
Základní_vrstva
62
3
10
2860.58171279356
20
3066.19068413641
30
0
11
2860.38741279356
21
3066.09688413641
31
0
0
LINE
8
Základní_vrstva
62
3
10
2860.38741279356
20
3066.09688413641
30
0
11
2860.15961279356
21
3066.07678413641
31
0
0
LINE
8
Základní_vrstva
62
3
10
2860.15961279356
20
3066.07678413641
30
0
11
2859.93181279356
21
3066.02318413641
31
0
0
LINE
8
Základní_vrstva
62
3
10
2859.93181279356
20
3066.02318413641
30
0
11
2859.79111279356
21
3065.82888413641
31
0
0
LINE
8
Základní_vrstva
62
3
10
2859.79111279356
20
3065.82888413641
30
0
11
2859.69061279356
21
3065.62118413641
31
0
0
LINE
8
Základní_vrstva
62
3
10
2859.69061279356
20
3065.62118413641
30
0
11
2859.53651279356
21
3065.46708413641
31
0
0
LINE
8
Základní_vrstva
62
3
10
2859.53651279356
20
3065.46708413641
30
0
11
2859.40251279356
21
3065.25938413641
31
0
0
LINE
8
Základní_vrstva
62
3
10
2859.40251279356
20
3065.25938413641
30
0
11
2859.42261279356
21
3065.03158413641
31
0
0
LINE
8
Základní_vrstva
62
3
10
2859.42261279356
20
3065.03158413641
30
0
11
2859.48291279356
21
3064.82388413641
31
0
0
LINE
8
Základní_vrstva
62
3
10
2859.48291279356
20
3064.82388413641
30
0
11
2859.45611279356
21
3064.60278413641
31
0
0
LINE
8
Základní_vrstva
62
3
10
2859.45611279356
20
3064.60278413641
30
0
11
2859.47621279356
21
3064.37498413641
31
0
0
LINE
8
Základní_vrstva
62
3
10
2859.47621279356
20
3064.37498413641
30
0
11
2859.64371279356
21
3064.20078413641
31
0
0
LINE
8
Základní_vrstva
62
3
10
2859.64371279356
20
3064.20078413641
30
0
11
2859.83801279356
21
3064.06678413641
31
0
0
LINE
8
Základní_vrstva
62
3
10
2859.83801279356
20
3064.06678413641
30
0
11
2859.96531279356
21
3063.88588413641
31
0
0
LINE
8
Základní_vrstva
62
3
10
2859.96531279356
20
3063.88588413641
30
0
11
2860.11271279356
21
3063.73178413641
31
0
0
LINE
8
Základní_vrstva
62
3
10
2860.11271279356
20
3063.73178413641
30
0
11
2860.34051279356
21
3063.71168413641
31
0
0
LINE
8
Základní_vrstva
62
3
10
2860.34051279356
20
3063.71168413641
30
0
11
2860.57501279356
21
3063.73178413641
31
0
0
LINE
8
Základní_vrstva
62
3
10
2860.57501279356
20
3063.73178413641
30
0
11
2860.78941279356
21
3063.67148413641
31
0
0
LINE
8
Základní_vrstva
62
3
10
2860.78941279356
20
3063.67148413641
30
0
11
2861.02391279356
21
3063.65138413641
31
0
0
LINE
8
Základní_vrstva
62
3
10
2861.02391279356
20
3063.65138413641
30
0
11
2861.21151279356
21
3063.77868413641
31
0
0
LINE
8
Základní_vrstva
62
3
10
2861.21151279356
20
3063.77868413641
30
0
11
2861.36561279356
21
3063.93948413641
31
0
0
LINE
8
Základní_vrstva
62
3
10
2861.36561279356
20
3063.93948413641
30
0
11
2861.57331279356
21
3064.03328413641
31
0
0
LINE
8
Základní_vrstva
62
3
10
2861.57331279356
20
3064.03328413641
30
0
11
2861.76761279356
21
3064.17398413641
31
0
0
LINE
8
Základní_vrstva
62
3
10
2861.76761279356
20
3064.17398413641
30
0
11
2861.83461279356
21
3064.40178413641
31
0
0
LINE
8
Základní_vrstva
62
3
10
2861.83461279356
20
3064.40178413641
30
0
11
2861.84801279356
21
3064.62958413641
31
0
0
LINE
8
Základní_vrstva
62
3
10
2861.84801279356
20
3064.62958413641
30
0
11
2861.94181279356
21
3064.84398413641
31
0
0
LINE
8
Základní_vrstva
62
3
10
2861.94181279356
20
3064.84398413641
30
0
11
2862.00211279356
21
3065.03828413641
31
0
0
CIRCLE
8
Základní_vrstva
62
3
10
2860.68221279356
20
3064.93108413641
30
0
40
0.111666666666679
0
LINE
8
Základní_vrstva
62
3
10
2866.85713154356
20
3066.22890913641
30
0
11
2866.77673154356
21
3066.41650913641
31
0
0
LINE
8
Základní_vrstva
62
3
10
2866.77673154356
20
3066.41650913641
30
0
11
2866.64273154356
21
3066.62420913641
31
0
0
LINE
8
Základní_vrstva
62
3
10
2866.64273154356
20
3066.62420913641
30
0
11
2866.58243154356
21
3066.85200913641
31
0
0
LINE
8
Základní_vrstva
62
3
10
2866.58243154356
20
3066.85200913641
30
0
11
2866.48863154356
21
3067.05300913641
31
0
0
LINE
8
Základní_vrstva
62
3
10
2866.48863154356
20
3067.05300913641
30
0
11
2866.27423154356
21
3067.16020913641
31
0
0
LINE
8
Základní_vrstva
62
3
10
2866.27423154356
20
3067.16020913641
30
0
11
2866.05313154356
21
3067.22050913641
31
0
0
LINE
8
Základní_vrstva
62
3
10
2866.05313154356
20
3067.22050913641
30
0
11
2865.87223154356
21
3067.34780913641
31
0
0
LINE
8
Základní_vrstva
62
3
10
2865.87223154356
20
3067.34780913641
30
0
11
2865.66453154356
21
3067.44160913641
31
0
0
LINE
8
Základní_vrstva
62
3
10
2865.66453154356
20
3067.44160913641
30
0
11
2865.44343154356
21
3067.38130913641
31
0
0
LINE
8
Základní_vrstva
62
3
10
2865.44343154356
20
3067.38130913641
30
0
11
2865.24913154356
21
3067.28750913641
31
0
0
LINE
8
Základní_vrstva
62
3
10
2865.24913154356
20
3067.28750913641
30
0
11
2865.02133154356
21
3067.26740913641
31
0
0
LINE
8
Základní_vrstva
62
3
10
2865.02133154356
20
3067.26740913641
30
0
11
2864.79353154356
21
3067.21380913641
31
0
0
LINE
8
Základní_vrstva
62
3
10
2864.79353154356
20
3067.21380913641
30
0
11
2864.65283154356
21
3067.01950913641
31
0
0
LINE
8
Základní_vrstva
62
3
10
2864.65283154356
20
3067.01950913641
30
0
11
2864.55233154356
21
3066.81180913641
31
0
0
LINE
8
Základní_vrstva
62
3
10
2864.55233154356
20
3066.81180913641
30
0
11
2864.39823154356
21
3066.65770913641
31
0
0
LINE
8
Základní_vrstva
62
3
10
2864.39823154356
20
3066.65770913641
30
0
11
2864.26423154356
21
3066.45000913641
31
0
0
LINE
8
Základní_vrstva
62
3
10
2864.26423154356
20
3066.45000913641
30
0
11
2864.28433154356
21
3066.22220913641
31
0
0
LINE
8
Základní_vrstva
62
3
10
2864.28433154356
20
3066.22220913641
30
0
11
2864.34463154356
21
3066.01450913641
31
0
0
LINE
8
Základní_vrstva
62
3
10
2864.34463154356
20
3066.01450913641
30
0
11
2864.31783154356
21
3065.79340913641
31
0
0
LINE
8
Základní_vrstva
62
3
10
2864.31783154356
20
3065.79340913641
30
0
11
2864.33793154356
21
3065.56560913641
31
0
0
LINE
8
Základní_vrstva
62
3
10
2864.33793154356
20
3065.56560913641
30
0
11
2864.50543154356
21
3065.39140913641
31
0
0
LINE
8
Základní_vrstva
62
3
10
2864.50543154356
20
3065.39140913641
30
0
11
2864.69973154356
21
3065.25740913641
31
0
0
LINE
8
Základní_vrstva
62
3
10
2864.69973154356
20
3065.25740913641
30
0
11
2864.82703154356
21
3065.07650913641
31
0
0
LINE
8
Základní_vrstva
62
3
10
2864.82703154356
20
3065.07650913641
30
0
11
2864.97443154356
21
3064.92240913641
31
0
0
LINE
8
Základní_vrstva
62
3
10
2864.97443154356
20
3064.92240913641
30
0
11
2865.20223154356
21
3064.90230913641
31
0
0
LINE
8
Základní_vrstva
62
3
10
2865.20223154356
20
3064.90230913641
30
0
11
2865.43673154356
21
3064.92240913641
31
0
0
LINE
8
Základní_vrstva
62
3
10
2865.43673154356
20
3064.92240913641
30
0
11
2865.65113154356
21
3064.86210913641
31
0
0
LINE
8
Základní_vrstva
62
3
10
2865.65113154356
20
3064.86210913641
30
0
11
2865.88563154356
21
3064.84200913641
31
0
0
LINE
8
Základní_vrstva
62
3
10
2865.88563154356
20
3064.84200913641
30
0
11
2866.07323154356
21
3064.96930913641
31
0
0
LINE
8
Základní_vrstva
62
3
10
2866.07323154356
20
3064.96930913641
30
0
11
2866.22733154356
21
3065.13010913641
31
0
0
LINE
8
Základní_vrstva
62
3
10
2866.22733154356
20
3065.13010913641
30
0
11
2866.43503154356
21
3065.22390913641
31
0
0
LINE
8
Základní_vrstva
62
3
10
2866.43503154356
20
3065.22390913641
30
0
11
2866.62933154356
21
3065.36460913641
31
0
0
LINE
8
Základní_vrstva
62
3
10
2866.62933154356
20
3065.36460913641
30
0
11
2866.69633154356
21
3065.59240913641
31
0
0
LINE
8
Základní_vrstva
62
3
10
2866.69633154356
20
3065.59240913641
30
0
11
2866.70973154356
21
3065.82020913641
31
0
0
LINE
8
Základní_vrstva
62
3
10
2866.70973154356
20
3065.82020913641
30
0
11
2866.80353154356
21
3066.03460913641
31
0
0
LINE
8
Základní_vrstva
62
3
10
2866.80353154356
20
3066.03460913641
30
0
11
2866.86383154356
21
3066.22890913641
31
0
0
CIRCLE
8
Základní_vrstva
62
3
10
2865.54393154356
20
3066.12170913641
30
0
40
0.111666666666679
0
LINE
8
Základní_vrstva
62
3
10
2872.81025654356
20
3067.71719038641
30
0
11
2872.72985654356
21
3067.90479038641
31
0
0
LINE
8
Základní_vrstva
62
3
10
2872.72985654356
20
3067.90479038641
30
0
11
2872.59585654356
21
3068.11249038641
31
0
0
LINE
8
Základní_vrstva
62
3
10
2872.59585654356
20
3068.11249038641
30
0
11
2872.53555654356
21
3068.34029038641
31
0
0
LINE
8
Základní_vrstva
62
3
10
2872.53555654356
20
3068.34029038641
30
0
11
2872.44175654356
21
3068.54129038641
31
0
0
LINE
8
Základní_vrstva
62
3
10
2872.44175654356
20
3068.54129038641
30
0
11
2872.22735654356
21
3068.64849038641
31
0
0
LINE
8
Základní_vrstva
62
3
10
2872.22735654356
20
3068.64849038641
30
0
11
2872.00625654356
21
3068.70879038641
31
0
0
LINE
8
Základní_vrstva
62
3
10
2872.00625654356
20
3068.70879038641
30
0
11
2871.82535654356
21
3068.83609038641
31
0
0
LINE
8
Základní_vrstva
62
3
10
2871.82535654356
20
3068.83609038641
30
0
11
2871.61765654356
21
3068.92989038641
31
0
0
LINE
8
Základní_vrstva
62
3
10
2871.61765654356
20
3068.92989038641
30
0
11
2871.39655654356
21
3068.86959038641
31
0
0
LINE
8
Základní_vrstva
62
3
10
2871.39655654356
20
3068.86959038641
30
0
11
2871.20225654356
21
3068.77579038641
31
0
0
LINE
8
Základní_vrstva
62
3
10
2871.20225654356
20
3068.77579038641
30
0
11
2870.97445654356
21
3068.75569038641
31
0
0
LINE
8
Základní_vrstva
62
3
10
2870.97445654356
20
3068.75569038641
30
0
11
2870.74665654356
21
3068.70209038641
31
0
0
LINE
8
Základní_vrstva
62
3
10
2870.74665654356
20
3068.70209038641
30
0
11
2870.60595654356
21
3068.50779038641
31
0
0
LINE
8
Základní_vrstva
62
3
10
2870.60595654356
20
3068.50779038641
30
0
11
2870.50545654356
21
3068.30009038641
31
0
0
LINE
8
Základní_vrstva
62
3
10
2870.50545654356
20
3068.30009038641
30
0
11
2870.35135654356
21
3068.14599038641
31
0
0
LINE
8
Základní_vrstva
62
3
10
2870.35135654356
20
3068.14599038641
30
0
11
2870.21735654356
21
3067.93829038641
31
0
0
LINE
8
Základní_vrstva
62
3
10
2870.21735654356
20
3067.93829038641
30
0
11
2870.23745654356
21
3067.71049038641
31
0
0
LINE
8
Základní_vrstva
62
3
10
2870.23745654356
20
3067.71049038641
30
0
11
2870.29775654356
21
3067.50279038641
31
0
0
LINE
8
Základní_vrstva
62
3
10
2870.29775654356
20
3067.50279038641
30
0
11
2870.27095654356
21
3067.28169038641
31
0
0
LINE
8
Základní_vrstva
62
3
10
2870.27095654356
20
3067.28169038641
30
0
11
2870.29105654356
21
3067.05389038641
31
0
0
LINE
8
Základní_vrstva
62
3
10
2870.29105654356
20
3067.05389038641
30
0
11
2870.45855654356
21
3066.87969038641
31
0
0
LINE
8
Základní_vrstva
62
3
10
2870.45855654356
20
3066.87969038641
30
0
11
2870.65285654356
21
3066.74569038641
31
0
0
LINE
8
Základní_vrstva
62
3
10
2870.65285654356
20
3066.74569038641
30
0
11
2870.78015654356
21
3066.56479038641
31
0
0
LINE
8
Základní_vrstva
62
3
10
2870.78015654356
20
3066.56479038641
30
0
11
2870.92755654356
21
3066.41069038641
31
0
0
LINE
8
Základní_vrstva
62
3
10
2870.92755654356
20
3066.41069038641
30
0
11
2871.15535654356
21
3066.39059038641
31
0
0
LINE
8
Základní_vrstva
62
3
10
2871.15535654356
20
3066.39059038641
30
0
11
2871.38985654356
21
3066.41069038641
31
0
0
LINE
8
Základní_vrstva
62
3
10
2871.38985654356
20
3066.41069038641
30
0
11
2871.60425654356
21
3066.35039038641
31
0
0
LINE
8
Základní_vrstva
62
3
10
2871.60425654356
20
3066.35039038641
30
0
11
2871.83875654356
21
3066.33029038641
31
0
0
LINE
8
Základní_vrstva
62
3
10
2871.83875654356
20
3066.33029038641
30
0
11
2872.02635654356
21
3066.45759038641
31
0
0
LINE
8
Základní_vrstva
62
3
10
2872.02635654356
20
3066.45759038641
30
0
11
2872.18045654356
21
3066.61839038641
31
0
0
LINE
8
Základní_vrstva
62
3
10
2872.18045654356
20
3066.61839038641
30
0
11
2872.38815654356
21
3066.71219038641
31
0
0
LINE
8
Základní_vrstva
62
3
10
2872.38815654356
20
3066.71219038641
30
0
11
2872.58245654356
21
3066.85289038641
31
0
0
LINE
8
Základní_vrstva
62
3
10
2872.58245654356
20
3066.85289038641
30
0
11
2872.64945654356
21
3067.08069038641
31
0
0
LINE
8
Základní_vrstva
62
3
10
2872.64945654356
20
3067.08069038641
30
0
11
2872.66285654356
21
3067.30849038641
31
0
0
LINE
8
Základní_vrstva
62
3
10
2872.66285654356
20
3067.30849038641
30
0
11
2872.75665654356
21
3067.52289038641
31
0
0
LINE
8
Základní_vrstva
62
3
10
2872.75665654356
20
3067.52289038641
30
0
11
2872.81695654356
21
3067.71719038641
31
0
0
CIRCLE
8
Základní_vrstva
62
3
10
2871.49705654356
20
3067.60999038641
30
0
40
0.111666666666679
0
LINE
8
Základní_vrstva
62
3
10
2878.76338154356
20
3069.10625288641
30
0
11
2878.68298154356
21
3069.29385288641
31
0
0
LINE
8
Základní_vrstva
62
3
10
2878.68298154356
20
3069.29385288641
30
0
11
2878.54898154356
21
3069.50155288641
31
0
0
LINE
8
Základní_vrstva
62
3
10
2878.54898154356
20
3069.50155288641
30
0
11
2878.48868154356
21
3069.72935288641
31
0
0
LINE
8
Základní_vrstva
62
3
10
2878.48868154356
20
3069.72935288641
30
0
11
2878.39488154356
21
3069.93035288641
31
0
0
LINE
8
Základní_vrstva
62
3
10
2878.39488154356
20
3069.93035288641
30
0
11
2878.18048154356
21
3070.03755288641
31
0
0
LINE
8
Základní_vrstva
62
3
10
2878.18048154356
20
3070.03755288641
30
0
11
2877.95938154356
21
3070.09785288641
31
0
0
LINE
8
Základní_vrstva
62
3
10
2877.95938154356
20
3070.09785288641
30
0
11
2877.77848154356
21
3070.22515288641
31
0
0
LINE
8
Základní_vrstva
62
3
10
2877.77848154356
20
3070.22515288641
30
0
11
2877.57078154356
21
3070.31895288641
31
0
0
LINE
8
Základní_vrstva
62
3
10
2877.57078154356
20
3070.31895288641
30
0
11
2877.34968154356
21
3070.25865288641
31
0
0
LINE
8
Základní_vrstva
62
3
10
2877.34968154356
20
3070.25865288641
30
0
11
2877.15538154356
21
3070.16485288641
31
0
0
LINE
8
Základní_vrstva
62
3
10
2877.15538154356
20
3070.16485288641
30
0
11
2876.92758154356
21
3070.14475288641
31
0
0
LINE
8
Základní_vrstva
62
3
10
2876.92758154356
20
3070.14475288641
30
0
11
2876.69978154356
21
3070.09115288641
31
0
0
LINE
8
Základní_vrstva
62
3
10
2876.69978154356
20
3070.09115288641
30
0
11
2876.55908154356
21
3069.89685288641
31
0
0
LINE
8
Základní_vrstva
62
3
10
2876.55908154356
20
3069.89685288641
30
0
11
2876.45858154356
21
3069.68915288641
31
0
0
LINE
8
Základní_vrstva
62
3
10
2876.45858154356
20
3069.68915288641
30
0
11
2876.30448154356
21
3069.53505288641
31
0
0
LINE
8
Základní_vrstva
62
3
10
2876.30448154356
20
3069.53505288641
30
0
11
2876.17048154356
21
3069.32735288641
31
0
0
LINE
8
Základní_vrstva
62
3
10
2876.17048154356
20
3069.32735288641
30
0
11
2876.19058154356
21
3069.09955288641
31
0
0
LINE
8
Základní_vrstva
62
3
10
2876.19058154356
20
3069.09955288641
30
0
11
2876.25088154356
21
3068.89185288641
31
0
0
LINE
8
Základní_vrstva
62
3
10
2876.25088154356
20
3068.89185288641
30
0
11
2876.22408154356
21
3068.67075288641
31
0
0
LINE
8
Základní_vrstva
62
3
10
2876.22408154356
20
3068.67075288641
30
0
11
2876.24418154356
21
3068.44295288641
31
0
0
LINE
8
Základní_vrstva
62
3
10
2876.24418154356
20
3068.44295288641
30
0
11
2876.41168154356
21
3068.26875288641
31
0
0
LINE
8
Základní_vrstva
62
3
10
2876.41168154356
20
3068.26875288641
30
0
11
2876.60598154356
21
3068.13475288641
31
0
0
LINE
8
Základní_vrstva
62
3
10
2876.60598154356
20
3068.13475288641
30
0
11
2876.73328154356
21
3067.95385288641
31
0
0
LINE
8
Základní_vrstva
62
3
10
2876.73328154356
20
3067.95385288641
30
0
11
2876.88068154356
21
3067.79975288641
31
0
0
LINE
8
Základní_vrstva
62
3
10
2876.88068154356
20
3067.79975288641
30
0
11
2877.10848154356
21
3067.77965288641
31
0
0
LINE
8
Základní_vrstva
62
3
10
2877.10848154356
20
3067.77965288641
30
0
11
2877.34298154356
21
3067.79975288641
31
0
0
LINE
8
Základní_vrstva
62
3
10
2877.34298154356
20
3067.79975288641
30
0
11
2877.55738154356
21
3067.73945288641
31
0
0
LINE
8
Základní_vrstva
62
3
10
2877.55738154356
20
3067.73945288641
30
0
11
2877.79188154356
21
3067.71935288641
31
0
0
LINE
8
Základní_vrstva
62
3
10
2877.79188154356
20
3067.71935288641
30
0
11
2877.97948154356
21
3067.84665288641
31
0
0
LINE
8
Základní_vrstva
62
3
10
2877.97948154356
20
3067.84665288641
30
0
11
2878.13358154356
21
3068.00745288641
31
0
0
LINE
8
Základní_vrstva
62
3
10
2878.13358154356
20
3068.00745288641
30
0
11
2878.34128154356
21
3068.10125288641
31
0
0
LINE
8
Základní_vrstva
62
3
10
2878.34128154356
20
3068.10125288641
30
0
11
2878.53558154356
21
3068.24195288641
31
0
0
LINE
8
Základní_vrstva
62
3
10
2878.53558154356
20
3068.24195288641
30
0
11
2878.60258154356
21
3068.46975288641
31
0
0
LINE
8
Základní_vrstva
62
3
10
2878.60258154356
20
3068.46975288641
30
0
11
2878.61598154356
21
3068.69755288641
31
0
0
LINE
8
Základní_vrstva
62
3
10
2878.61598154356
20
3068.69755288641
30
0
11
2878.70978154356
21
3068.91195288641
31
0
0
LINE
8
Základní_vrstva
62
3
10
2878.70978154356
20
3068.91195288641
30
0
11
2878.77008154356
21
3069.10625288641
31
0
0
CIRCLE
8
Základní_vrstva
62
3
10
2877.45018154356
20
3068.99905288641
30
0
40
0.111666666666679
0
LINE
8
Základní_vrstva
62
3
10
2888.78447529356
20
3071.09062788641
30
0
11
2888.70407529356
21
3071.27822788641
31
0
0
LINE
8
Základní_vrstva
62
3
10
2888.70407529356
20
3071.27822788641
30
0
11
2888.57007529356
21
3071.48592788641
31
0
0
LINE
8
Základní_vrstva
62
3
10
2888.57007529356
20
3071.48592788641
30
0
11
2888.50977529356
21
3071.71372788641
31
0
0
LINE
8
Základní_vrstva
62
3
10
2888.50977529356
20
3071.71372788641
30
0
11
2888.41597529356
21
3071.91472788641
31
0
0
LINE
8
Základní_vrstva
62
3
10
2888.41597529356
20
3071.91472788641
30
0
11
2888.20157529356
21
3072.02192788641
31
0
0
LINE
8
Základní_vrstva
62
3
10
2888.20157529356
20
3072.02192788641
30
0
11
2887.98047529356
21
3072.08222788641
31
0
0
LINE
8
Základní_vrstva
62
3
10
2887.98047529356
20
3072.08222788641
30
0
11
2887.79957529356
21
3072.20952788641
31
0
0
LINE
8
Základní_vrstva
62
3
10
2887.79957529356
20
3072.20952788641
30
0
11
2887.59187529356
21
3072.30332788641
31
0
0
LINE
8
Základní_vrstva
62
3
10
2887.59187529356
20
3072.30332788641
30
0
11
2887.37077529356
21
3072.24302788641
31
0
0
LINE
8
Základní_vrstva
62
3
10
2887.37077529356
20
3072.24302788641
30
0
11
2887.17647529356
21
3072.14922788641
31
0
0
LINE
8
Základní_vrstva
62
3
10
2887.17647529356
20
3072.14922788641
30
0
11
2886.94867529356
21
3072.12912788641
31
0
0
LINE
8
Základní_vrstva
62
3
10
2886.94867529356
20
3072.12912788641
30
0
11
2886.72087529356
21
3072.07552788641
31
0
0
LINE
8
Základní_vrstva
62
3
10
2886.72087529356
20
3072.07552788641
30
0
11
2886.58017529356
21
3071.88122788641
31
0
0
LINE
8
Základní_vrstva
62
3
10
2886.58017529356
20
3071.88122788641
30
0
11
2886.47967529356
21
3071.67352788641
31
0
0
LINE
8
Základní_vrstva
62
3
10
2886.47967529356
20
3071.67352788641
30
0
11
2886.32557529356
21
3071.51942788641
31
0
0
LINE
8
Základní_vrstva
62
3
10
2886.32557529356
20
3071.51942788641
30
0
11
2886.19157529356
21
3071.31172788641
31
0
0
LINE
8
Základní_vrstva
62
3
10
2886.19157529356
20
3071.31172788641
30
0
11
2886.21167529356
21
3071.08392788641
31
0
0
LINE
8
Základní_vrstva
62
3
10
2886.21167529356
20
3071.08392788641
30
0
11
2886.27197529356
21
3070.87622788641
31
0
0
LINE
8
Základní_vrstva
62
3
10
2886.27197529356
20
3070.87622788641
30
0
11
2886.24517529356
21
3070.65512788641
31
0
0
LINE
8
Základní_vrstva
62
3
10
2886.24517529356
20
3070.65512788641
30
0
11
2886.26527529356
21
3070.42732788641
31
0
0
LINE
8
Základní_vrstva
62
3
10
2886.26527529356
20
3070.42732788641
30
0
11
2886.43277529356
21
3070.25312788641
31
0
0
LINE
8
Základní_vrstva
62
3
10
2886.43277529356
20
3070.25312788641
30
0
11
2886.62707529356
21
3070.11912788641
31
0
0
LINE
8
Základní_vrstva
62
3
10
2886.62707529356
20
3070.11912788641
30
0
11
2886.75437529356
21
3069.93822788641
31
0
0
LINE
8
Základní_vrstva
62
3
10
2886.75437529356
20
3069.93822788641
30
0
11
2886.90177529356
21
3069.78412788641
31
0
0
LINE
8
Základní_vrstva
62
3
10
2886.90177529356
20
3069.78412788641
30
0
11
2887.12957529356
21
3069.76402788641
31
0
0
LINE
8
Základní_vrstva
62
3
10
2887.12957529356
20
3069.76402788641
30
0
11
2887.36407529356
21
3069.78412788641
31
0
0
LINE
8
Základní_vrstva
62
3
10
2887.36407529356
20
3069.78412788641
30
0
11
2887.57847529356
21
3069.72382788641
31
0
0
LINE
8
Základní_vrstva
62
3
10
2887.57847529356
20
3069.72382788641
30
0
11
2887.81297529356
21
3069.70372788641
31
0
0
LINE
8
Základní_vrstva
62
3
10
2887.81297529356
20
3069.70372788641
30
0
11
2888.00057529356
21
3069.83102788641
31
0
0
LINE
8
Základní_vrstva
62
3
10
2888.00057529356
20
3069.83102788641
30
0
11
2888.15467529356
21
3069.99182788641
31
0
0
LINE
8
Základní_vrstva
62
3
10
2888.15467529356
20
3069.99182788641
30
0
11
2888.36237529356
21
3070.08562788641
31
0
0
LINE
8
Základní_vrstva
62
3
10
2888.36237529356
20
3070.08562788641
30
0
11
2888.55667529356
21
3070.22632788641
31
0
0
LINE
8
Základní_vrstva
62
3
10
2888.55667529356
20
3070.22632788641
30
0
11
2888.62367529356
21
3070.45412788641
31
0
0
LINE
8
Základní_vrstva
62
3
10
2888.62367529356
20
3070.45412788641
30
0
11
2888.63707529356
21
3070.68192788641
31
0
0
LINE
8
Základní_vrstva
62
3
10
2888.63707529356
20
3070.68192788641
30
0
11
2888.73087529356
21
3070.89632788641
31
0
0
LINE
8
Základní_vrstva
62
3
10
2888.73087529356
20
3070.89632788641
30
0
11
2888.79117529356
21
3071.09062788641
31
0
0
CIRCLE
8
Základní_vrstva
62
3
10
2887.47127529356
20
3070.98342788641
30
0
40
0.111666666666679
0
LINE
8
Základní_vrstva
62
3
10
2894.34072529356
20
3072.47969038641
30
0
11
2894.26032529356
21
3072.66729038641
31
0
0
LINE
8
Základní_vrstva
62
3
10
2894.26032529356
20
3072.66729038641
30
0
11
2894.12632529356
21
3072.87499038641
31
0
0
LINE
8
Základní_vrstva
62
3
10
2894.12632529356
20
3072.87499038641
30
0
11
2894.06602529356
21
3073.10279038641
31
0
0
LINE
8
Základní_vrstva
62
3
10
2894.06602529356
20
3073.10279038641
30
0
11
2893.97222529356
21
3073.30379038641
31
0
0
LINE
8
Základní_vrstva
62
3
10
2893.97222529356
20
3073.30379038641
30
0
11
2893.75782529356
21
3073.41099038641
31
0
0
LINE
8
Základní_vrstva
62
3
10
2893.75782529356
20
3073.41099038641
30
0
11
2893.53672529356
21
3073.47129038641
31
0
0
LINE
8
Základní_vrstva
62
3
10
2893.53672529356
20
3073.47129038641
30
0
11
2893.35582529356
21
3073.59859038641
31
0
0
LINE
8
Základní_vrstva
62
3
10
2893.35582529356
20
3073.59859038641
30
0
11
2893.14812529356
21
3073.69239038641
31
0
0
LINE
8
Základní_vrstva
62
3
10
2893.14812529356
20
3073.69239038641
30
0
11
2892.92702529356
21
3073.63209038641
31
0
0
LINE
8
Základní_vrstva
62
3
10
2892.92702529356
20
3073.63209038641
30
0
11
2892.73272529356
21
3073.53829038641
31
0
0
LINE
8
Základní_vrstva
62
3
10
2892.73272529356
20
3073.53829038641
30
0
11
2892.50492529356
21
3073.51819038641
31
0
0
LINE
8
Základní_vrstva
62
3
10
2892.50492529356
20
3073.51819038641
30
0
11
2892.27712529356
21
3073.46459038641
31
0
0
LINE
8
Základní_vrstva
62
3
10
2892.27712529356
20
3073.46459038641
30
0
11
2892.13642529356
21
3073.27029038641
31
0
0
LINE
8
Základní_vrstva
62
3
10
2892.13642529356
20
3073.27029038641
30
0
11
2892.03592529356
21
3073.06259038641
31
0
0
LINE
8
Základní_vrstva
62
3
10
2892.03592529356
20
3073.06259038641
30
0
11
2891.88182529356
21
3072.90849038641
31
0
0
LINE
8
Základní_vrstva
62
3
10
2891.88182529356
20
3072.90849038641
30
0
11
2891.74782529356
21
3072.70079038641
31
0
0
LINE
8
Základní_vrstva
62
3
10
2891.74782529356
20
3072.70079038641
30
0
11
2891.76792529356
21
3072.47299038641
31
0
0
LINE
8
Základní_vrstva
62
3
10
2891.76792529356
20
3072.47299038641
30
0
11
2891.82822529356
21
3072.26529038641
31
0
0
LINE
8
Základní_vrstva
62
3
10
2891.82822529356
20
3072.26529038641
30
0
11
2891.80142529356
21
3072.04419038641
31
0
0
LINE
8
Základní_vrstva
62
3
10
2891.80142529356
20
3072.04419038641
30
0
11
2891.82152529356
21
3071.81639038641
31
0
0
LINE
8
Základní_vrstva
62
3
10
2891.82152529356
20
3071.81639038641
30
0
11
2891.98902529356
21
3071.64219038641
31
0
0
LINE
8
Základní_vrstva
62
3
10
2891.98902529356
20
3071.64219038641
30
0
11
2892.18332529356
21
3071.50819038641
31
0
0
LINE
8
Základní_vrstva
62
3
10
2892.18332529356
20
3071.50819038641
30
0
11
2892.31062529356
21
3071.32729038641
31
0
0
LINE
8
Základní_vrstva
62
3
10
2892.31062529356
20
3071.32729038641
30
0
11
2892.45802529356
21
3071.17319038641
31
0
0
LINE
8
Základní_vrstva
62
3
10
2892.45802529356
20
3071.17319038641
30
0
11
2892.68582529356
21
3071.15309038641
31
0
0
LINE
8
Základní_vrstva
62
3
10
2892.68582529356
20
3071.15309038641
30
0
11
2892.92032529356
21
3071.17319038641
31
0
0
LINE
8
Základní_vrstva
62
3
10
2892.92032529356
20
3071.17319038641
30
0
11
2893.13472529356
21
3071.11289038641
31
0
0
LINE
8
Základní_vrstva
62
3
10
2893.13472529356
20
3071.11289038641
30
0
11
2893.36922529356
21
3071.09279038641
31
0
0
LINE
8
Základní_vrstva
62
3
10
2893.36922529356
20
3071.09279038641
30
0
11
2893.55682529356
21
3071.22009038641
31
0
0
LINE
8
Základní_vrstva
62
3
10
2893.55682529356
20
3071.22009038641
30
0
11
2893.71092529356
21
3071.38089038641
31
0
0
LINE
8
Základní_vrstva
62
3
10
2893.71092529356
20
3071.38089038641
30
0
11
2893.91862529356
21
3071.47469038641
31
0
0
LINE
8
Základní_vrstva
62
3
10
2893.91862529356
20
3071.47469038641
30
0
11
2894.11292529356
21
3071.61539038641
31
0
0
LINE
8
Základní_vrstva
62
3
10
2894.11292529356
20
3071.61539038641
30
0
11
2894.17992529356
21
3071.84319038641
31
0
0
LINE
8
Základní_vrstva
62
3
10
2894.17992529356
20
3071.84319038641
30
0
11
2894.19332529356
21
3072.07099038641
31
0
0
LINE
8
Základní_vrstva
62
3
10
2894.19332529356
20
3072.07099038641
30
0
11
2894.28712529356
21
3072.28539038641
31
0
0
LINE
8
Základní_vrstva
62
3
10
2894.28712529356
20
3072.28539038641
30
0
11
2894.34742529356
21
3072.47969038641
31
0
0
CIRCLE
8
Základní_vrstva
62
3
10
2893.02752529356
20
3072.37249038641
30
0
40
0.111666666666679
0
LINE
8
Základní_vrstva
62
3
10
2899.40088154356
20
3073.57109663641
30
0
11
2899.32048154356
21
3073.75869663641
31
0
0
LINE
8
Základní_vrstva
62
3
10
2899.32048154356
20
3073.75869663641
30
0
11
2899.18648154356
21
3073.96639663641
31
0
0
LINE
8
Základní_vrstva
62
3
10
2899.18648154356
20
3073.96639663641
30
0
11
2899.12618154356
21
3074.19419663641
31
0
0
LINE
8
Základní_vrstva
62
3
10
2899.12618154356
20
3074.19419663641
30
0
11
2899.03238154356
21
3074.39519663641
31
0
0
LINE
8
Základní_vrstva
62
3
10
2899.03238154356
20
3074.39519663641
30
0
11
2898.81798154356
21
3074.50239663641
31
0
0
LINE
8
Základní_vrstva
62
3
10
2898.81798154356
20
3074.50239663641
30
0
11
2898.59688154356
21
3074.56269663641
31
0
0
LINE
8
Základní_vrstva
62
3
10
2898.59688154356
20
3074.56269663641
30
0
11
2898.41598154356
21
3074.68999663641
31
0
0
LINE
8
Základní_vrstva
62
3
10
2898.41598154356
20
3074.68999663641
30
0
11
2898.20828154356
21
3074.78379663641
31
0
0
LINE
8
Základní_vrstva
62
3
10
2898.20828154356
20
3074.78379663641
30
0
11
2897.98718154356
21
3074.72349663641
31
0
0
LINE
8
Základní_vrstva
62
3
10
2897.98718154356
20
3074.72349663641
30
0
11
2897.79288154356
21
3074.62969663641
31
0
0
LINE
8
Základní_vrstva
62
3
10
2897.79288154356
20
3074.62969663641
30
0
11
2897.56508154356
21
3074.60959663641
31
0
0
LINE
8
Základní_vrstva
62
3
10
2897.56508154356
20
3074.60959663641
30
0
11
2897.33728154356
21
3074.55599663641
31
0
0
LINE
8
Základní_vrstva
62
3
10
2897.33728154356
20
3074.55599663641
30
0
11
2897.19658154356
21
3074.36169663641
31
0
0
LINE
8
Základní_vrstva
62
3
10
2897.19658154356
20
3074.36169663641
30
0
11
2897.09608154356
21
3074.15399663641
31
0
0
LINE
8
Základní_vrstva
62
3
10
2897.09608154356
20
3074.15399663641
30
0
11
2896.94198154356
21
3073.99989663641
31
0
0
LINE
8
Základní_vrstva
62
3
10
2896.94198154356
20
3073.99989663641
30
0
11
2896.80798154356
21
3073.79219663641
31
0
0
LINE
8
Základní_vrstva
62
3
10
2896.80798154356
20
3073.79219663641
30
0
11
2896.82808154356
21
3073.56439663641
31
0
0
LINE
8
Základní_vrstva
62
3
10
2896.82808154356
20
3073.56439663641
30
0
11
2896.88838154356
21
3073.35669663641
31
0
0
LINE
8
Základní_vrstva
62
3
10
2896.88838154356
20
3073.35669663641
30
0
11
2896.86158154356
21
3073.13559663641
31
0
0
LINE
8
Základní_vrstva
62
3
10
2896.86158154356
20
3073.13559663641
30
0
11
2896.88168154356
21
3072.90779663641
31
0
0
LINE
8
Základní_vrstva
62
3
10
2896.88168154356
20
3072.90779663641
30
0
11
2897.04918154356
21
3072.73359663641
31
0
0
LINE
8
Základní_vrstva
62
3
10
2897.04918154356
20
3072.73359663641
30
0
11
2897.24348154356
21
3072.59959663641
31
0
0
LINE
8
Základní_vrstva
62
3
10
2897.24348154356
20
3072.59959663641
30
0
11
2897.37078154356
21
3072.41869663641
31
0
0
LINE
8
Základní_vrstva
62
3
10
2897.37078154356
20
3072.41869663641
30
0
11
2897.51818154356
21
3072.26459663641
31
0
0
LINE
8
Základní_vrstva
62
3
10
2897.51818154356
20
3072.26459663641
30
0
11
2897.74598154356
21
3072.24449663641
31
0
0
LINE
8
Základní_vrstva
62
3
10
2897.74598154356
20
3072.24449663641
30
0
11
2897.98048154356
21
3072.26459663641
31
0
0
LINE
8
Základní_vrstva
62
3
10
2897.98048154356
20
3072.26459663641
30
0
11
2898.19488154356
21
3072.20429663641
31
0
0
LINE
8
Základní_vrstva
62
3
10
2898.19488154356
20
3072.20429663641
30
0
11
2898.42938154356
21
3072.18419663641
31
0
0
LINE
8
Základní_vrstva
62
3
10
2898.42938154356
20
3072.18419663641
30
0
11
2898.61698154356
21
3072.31149663641
31
0
0
LINE
8
Základní_vrstva
62
3
10
2898.61698154356
20
3072.31149663641
30
0
11
2898.77108154356
21
3072.47229663641
31
0
0
LINE
8
Základní_vrstva
62
3
10
2898.77108154356
20
3072.47229663641
30
0
11
2898.97878154356
21
3072.56609663641
31
0
0
LINE
8
Základní_vrstva
62
3
10
2898.97878154356
20
3072.56609663641
30
0
11
2899.17308154356
21
3072.70679663641
31
0
0
LINE
8
Základní_vrstva
62
3
10
2899.17308154356
20
3072.70679663641
30
0
11
2899.24008154356
21
3072.93459663641
31
0
0
LINE
8
Základní_vrstva
62
3
10
2899.24008154356
20
3072.93459663641
30
0
11
2899.25348154356
21
3073.16239663641
31
0
0
LINE
8
Základní_vrstva
62
3
10
2899.25348154356
20
3073.16239663641
30
0
11
2899.34728154356
21
3073.37679663641
31
0
0
LINE
8
Základní_vrstva
62
3
10
2899.34728154356
20
3073.37679663641
30
0
11
2899.40758154356
21
3073.57109663641
31
0
0
CIRCLE
8
Základní_vrstva
62
3
10
2898.08768154356
20
3073.46389663641
30
0
40
0.111666666666679
0
LINE
8
Základní_vrstva
62
3
10
2904.16338154356
20
3074.66250288641
30
0
11
2904.08298154356
21
3074.85010288641
31
0
0
LINE
8
Základní_vrstva
62
3
10
2904.08298154356
20
3074.85010288641
30
0
11
2903.94898154356
21
3075.05780288641
31
0
0
LINE
8
Základní_vrstva
62
3
10
2903.94898154356
20
3075.05780288641
30
0
11
2903.88868154356
21
3075.28560288641
31
0
0
LINE
8
Základní_vrstva
62
3
10
2903.88868154356
20
3075.28560288641
30
0
11
2903.79488154356
21
3075.48660288641
31
0
0
LINE
8
Základní_vrstva
62
3
10
2903.79488154356
20
3075.48660288641
30
0
11
2903.58048154356
21
3075.59380288641
31
0
0
LINE
8
Základní_vrstva
62
3
10
2903.58048154356
20
3075.59380288641
30
0
11
2903.35938154356
21
3075.65410288641
31
0
0
LINE
8
Základní_vrstva
62
3
10
2903.35938154356
20
3075.65410288641
30
0
11
2903.17848154356
21
3075.78140288641
31
0
0
LINE
8
Základní_vrstva
62
3
10
2903.17848154356
20
3075.78140288641
30
0
11
2902.97078154356
21
3075.87520288641
31
0
0
LINE
8
Základní_vrstva
62
3
10
2902.97078154356
20
3075.87520288641
30
0
11
2902.74968154356
21
3075.81490288641
31
0
0
LINE
8
Základní_vrstva
62
3
10
2902.74968154356
20
3075.81490288641
30
0
11
2902.55538154356
21
3075.72110288641
31
0
0
LINE
8
Základní_vrstva
62
3
10
2902.55538154356
20
3075.72110288641
30
0
11
2902.32758154356
21
3075.70100288641
31
0
0
LINE
8
Základní_vrstva
62
3
10
2902.32758154356
20
3075.70100288641
30
0
11
2902.09978154356
21
3075.64740288641
31
0
0
LINE
8
Základní_vrstva
62
3
10
2902.09978154356
20
3075.64740288641
30
0
11
2901.95908154356
21
3075.45310288641
31
0
0
LINE
8
Základní_vrstva
62
3
10
2901.95908154356
20
3075.45310288641
30
0
11
2901.85858154356
21
3075.24540288641
31
0
0
LINE
8
Základní_vrstva
62
3
10
2901.85858154356
20
3075.24540288641
30
0
11
2901.70448154356
21
3075.09130288641
31
0
0
LINE
8
Základní_vrstva
62
3
10
2901.70448154356
20
3075.09130288641
30
0
11
2901.57048154356
21
3074.88360288641
31
0
0
LINE
8
Základní_vrstva
62
3
10
2901.57048154356
20
3074.88360288641
30
0
11
2901.59058154356
21
3074.65580288641
31
0
0
LINE
8
Základní_vrstva
62
3
10
2901.59058154356
20
3074.65580288641
30
0
11
2901.65088154356
21
3074.44810288641
31
0
0
LINE
8
Základní_vrstva
62
3
10
2901.65088154356
20
3074.44810288641
30
0
11
2901.62408154356
21
3074.22700288641
31
0
0
LINE
8
Základní_vrstva
62
3
10
2901.62408154356
20
3074.22700288641
30
0
11
2901.64418154356
21
3073.99920288641
31
0
0
LINE
8
Základní_vrstva
62
3
10
2901.64418154356
20
3073.99920288641
30
0
11
2901.81168154356
21
3073.82500288641
31
0
0
LINE
8
Základní_vrstva
62
3
10
2901.81168154356
20
3073.82500288641
30
0
11
2902.00598154356
21
3073.69100288641
31
0
0
LINE
8
Základní_vrstva
62
3
10
2902.00598154356
20
3073.69100288641
30
0
11
2902.13328154356
21
3073.51010288641
31
0
0
LINE
8
Základní_vrstva
62
3
10
2902.13328154356
20
3073.51010288641
30
0
11
2902.28068154356
21
3073.35600288641
31
0
0
LINE
8
Základní_vrstva
62
3
10
2902.28068154356
20
3073.35600288641
30
0
11
2902.50848154356
21
3073.33590288641
31
0
0
LINE
8
Základní_vrstva
62
3
10
2902.50848154356
20
3073.33590288641
30
0
11
2902.74298154356
21
3073.35600288641
31
0
0
LINE
8
Základní_vrstva
62
3
10
2902.74298154356
20
3073.35600288641
30
0
11
2902.95738154356
21
3073.29570288641
31
0
0
LINE
8
Základní_vrstva
62
3
10
2902.95738154356
20
3073.29570288641
30
0
11
2903.19188154356
21
3073.27560288641
31
0
0
LINE
8
Základní_vrstva
62
3
10
2903.19188154356
20
3073.27560288641
30
0
11
2903.37948154356
21
3073.40290288641
31
0
0
LINE
8
Základní_vrstva
62
3
10
2903.37948154356
20
3073.40290288641
30
0
11
2903.53358154356
21
3073.56370288641
31
0
0
LINE
8
Základní_vrstva
62
3
10
2903.53358154356
20
3073.56370288641
30
0
11
2903.74128154356
21
3073.65750288641
31
0
0
LINE
8
Základní_vrstva
62
3
10
2903.74128154356
20
3073.65750288641
30
0
11
2903.93558154356
21
3073.79820288641
31
0
0
LINE
8
Základní_vrstva
62
3
10
2903.93558154356
20
3073.79820288641
30
0
11
2904.00258154356
21
3074.02600288641
31
0
0
LINE
8
Základní_vrstva
62
3
10
2904.00258154356
20
3074.02600288641
30
0
11
2904.01598154356
21
3074.25380288641
31
0
0
LINE
8
Základní_vrstva
62
3
10
2904.01598154356
20
3074.25380288641
30
0
11
2904.10978154356
21
3074.46820288641
31
0
0
LINE
8
Základní_vrstva
62
3
10
2904.10978154356
20
3074.46820288641
30
0
11
2904.17008154356
21
3074.66250288641
31
0
0
CIRCLE
8
Základní_vrstva
62
3
10
2902.85018154356
20
3074.55530288641
30
0
40
0.111666666666679
0
LINE
8
Základní_vrstva
62
3
10
2908.82666279356
20
3075.65469038641
30
0
11
2908.74626279356
21
3075.84229038641
31
0
0
LINE
8
Základní_vrstva
62
3
10
2908.74626279356
20
3075.84229038641
30
0
11
2908.61226279356
21
3076.04999038641
31
0
0
LINE
8
Základní_vrstva
62
3
10
2908.61226279356
20
3076.04999038641
30
0
11
2908.55196279356
21
3076.27779038641
31
0
0
LINE
8
Základní_vrstva
62
3
10
2908.55196279356
20
3076.27779038641
30
0
11
2908.45816279356
21
3076.47879038641
31
0
0
LINE
8
Základní_vrstva
62
3
10
2908.45816279356
20
3076.47879038641
30
0
11
2908.24376279356
21
3076.58599038641
31
0
0
LINE
8
Základní_vrstva
62
3
10
2908.24376279356
20
3076.58599038641
30
0
11
2908.02266279356
21
3076.64629038641
31
0
0
LINE
8
Základní_vrstva
62
3
10
2908.02266279356
20
3076.64629038641
30
0
11
2907.84176279356
21
3076.77359038641
31
0
0
LINE
8
Základní_vrstva
62
3
10
2907.84176279356
20
3076.77359038641
30
0
11
2907.63406279356
21
3076.86739038641
31
0
0
LINE
8
Základní_vrstva
62
3
10
2907.63406279356
20
3076.86739038641
30
0
11
2907.41296279356
21
3076.80709038641
31
0
0
LINE
8
Základní_vrstva
62
3
10
2907.41296279356
20
3076.80709038641
30
0
11
2907.21866279356
21
3076.71329038641
31
0
0
LINE
8
Základní_vrstva
62
3
10
2907.21866279356
20
3076.71329038641
30
0
11
2906.99086279356
21
3076.69319038641
31
0
0
LINE
8
Základní_vrstva
62
3
10
2906.99086279356
20
3076.69319038641
30
0
11
2906.76306279356
21
3076.63959038641
31
0
0
LINE
8
Základní_vrstva
62
3
10
2906.76306279356
20
3076.63959038641
30
0
11
2906.62236279356
21
3076.44529038641
31
0
0
LINE
8
Základní_vrstva
62
3
10
2906.62236279356
20
3076.44529038641
30
0
11
2906.52186279356
21
3076.23759038641
31
0
0
LINE
8
Základní_vrstva
62
3
10
2906.52186279356
20
3076.23759038641
30
0
11
2906.36776279356
21
3076.08349038641
31
0
0
LINE
8
Základní_vrstva
62
3
10
2906.36776279356
20
3076.08349038641
30
0
11
2906.23376279356
21
3075.87579038641
31
0
0
LINE
8
Základní_vrstva
62
3
10
2906.23376279356
20
3075.87579038641
30
0
11
2906.25386279356
21
3075.64799038641
31
0
0
LINE
8
Základní_vrstva
62
3
10
2906.25386279356
20
3075.64799038641
30
0
11
2906.31416279356
21
3075.44029038641
31
0
0
LINE
8
Základní_vrstva
62
3
10
2906.31416279356
20
3075.44029038641
30
0
11
2906.28736279356
21
3075.21919038641
31
0
0
LINE
8
Základní_vrstva
62
3
10
2906.28736279356
20
3075.21919038641
30
0
11
2906.30746279356
21
3074.99139038641
31
0
0
LINE
8
Základní_vrstva
62
3
10
2906.30746279356
20
3074.99139038641
30
0
11
2906.47496279356
21
3074.81719038641
31
0
0
LINE
8
Základní_vrstva
62
3
10
2906.47496279356
20
3074.81719038641
30
0
11
2906.66926279356
21
3074.68319038641
31
0
0
LINE
8
Základní_vrstva
62
3
10
2906.66926279356
20
3074.68319038641
30
0
11
2906.79656279356
21
3074.50229038641
31
0
0
LINE
8
Základní_vrstva
62
3
10
2906.79656279356
20
3074.50229038641
30
0
11
2906.94396279356
21
3074.34819038641
31
0
0
LINE
8
Základní_vrstva
62
3
10
2906.94396279356
20
3074.34819038641
30
0
11
2907.17176279356
21
3074.32809038641
31
0
0
LINE
8
Základní_vrstva
62
3
10
2907.17176279356
20
3074.32809038641
30
0
11
2907.40626279356
21
3074.34819038641
31
0
0
LINE
8
Základní_vrstva
62
3
10
2907.40626279356
20
3074.34819038641
30
0
11
2907.62066279356
21
3074.28789038641
31
0
0
LINE
8
Základní_vrstva
62
3
10
2907.62066279356
20
3074.28789038641
30
0
11
2907.85516279356
21
3074.26779038641
31
0
0
LINE
8
Základní_vrstva
62
3
10
2907.85516279356
20
3074.26779038641
30
0
11
2908.04276279356
21
3074.39509038641
31
0
0
LINE
8
Základní_vrstva
62
3
10
2908.04276279356
20
3074.39509038641
30
0
11
2908.19686279356
21
3074.55589038641
31
0
0
LINE
8
Základní_vrstva
62
3
10
2908.19686279356
20
3074.55589038641
30
0
11
2908.40456279356
21
3074.64969038641
31
0
0
LINE
8
Základní_vrstva
62
3
10
2908.40456279356
20
3074.64969038641
30
0
11
2908.59886279356
21
3074.79039038641
31
0
0
LINE
8
Základní_vrstva
62
3
10
2908.59886279356
20
3074.79039038641
30
0
11
2908.66586279356
21
3075.01819038641
31
0
0
LINE
8
Základní_vrstva
62
3
10
2908.66586279356
20
3075.01819038641
30
0
11
2908.67926279356
21
3075.24599038641
31
0
0
LINE
8
Základní_vrstva
62
3
10
2908.67926279356
20
3075.24599038641
30
0
11
2908.77306279356
21
3075.46039038641
31
0
0
LINE
8
Základní_vrstva
62
3
10
2908.77306279356
20
3075.46039038641
30
0
11
2908.83336279356
21
3075.65469038641
31
0
0
CIRCLE
8
Základní_vrstva
62
3
10
2907.51346279356
20
3075.54749038641
30
0
40
0.111666666666679
0
LINE
8
Základní_vrstva
62
3
10
2913.78760029356
20
3077.04375288641
30
0
11
2913.70720029356
21
3077.23135288641
31
0
0
LINE
8
Základní_vrstva
62
3
10
2913.70720029356
20
3077.23135288641
30
0
11
2913.57320029356
21
3077.43905288641
31
0
0
LINE
8
Základní_vrstva
62
3
10
2913.57320029356
20
3077.43905288641
30
0
11
2913.51290029356
21
3077.66685288641
31
0
0
LINE
8
Základní_vrstva
62
3
10
2913.51290029356
20
3077.66685288641
30
0
11
2913.41910029356
21
3077.86785288641
31
0
0
LINE
8
Základní_vrstva
62
3
10
2913.41910029356
20
3077.86785288641
30
0
11
2913.20470029356
21
3077.97505288641
31
0
0
LINE
8
Základní_vrstva
62
3
10
2913.20470029356
20
3077.97505288641
30
0
11
2912.98360029356
21
3078.03535288641
31
0
0
LINE
8
Základní_vrstva
62
3
10
2912.98360029356
20
3078.03535288641
30
0
11
2912.80270029356
21
3078.16265288641
31
0
0
LINE
8
Základní_vrstva
62
3
10
2912.80270029356
20
3078.16265288641
30
0
11
2912.59500029356
21
3078.25645288641
31
0
0
LINE
8
Základní_vrstva
62
3
10
2912.59500029356
20
3078.25645288641
30
0
11
2912.37390029356
21
3078.19615288641
31
0
0
LINE
8
Základní_vrstva
62
3
10
2912.37390029356
20
3078.19615288641
30
0
11
2912.17960029356
21
3078.10235288641
31
0
0
LINE
8
Základní_vrstva
62
3
10
2912.17960029356
20
3078.10235288641
30
0
11
2911.95180029356
21
3078.08225288641
31
0
0
LINE
8
Základní_vrstva
62
3
10
2911.95180029356
20
3078.08225288641
30
0
11
2911.72400029356
21
3078.02865288641
31
0
0
LINE
8
Základní_vrstva
62
3
10
2911.72400029356
20
3078.02865288641
30
0
11
2911.58330029356
21
3077.83435288641
31
0
0
LINE
8
Základní_vrstva
62
3
10
2911.58330029356
20
3077.83435288641
30
0
11
2911.48280029356
21
3077.62665288641
31
0
0
LINE
8
Základní_vrstva
62
3
10
2911.48280029356
20
3077.62665288641
30
0
11
2911.32870029356
21
3077.47255288641
31
0
0
LINE
8
Základní_vrstva
62
3
10
2911.32870029356
20
3077.47255288641
30
0
11
2911.19470029356
21
3077.26485288641
31
0
0
LINE
8
Základní_vrstva
62
3
10
2911.19470029356
20
3077.26485288641
30
0
11
2911.21480029356
21
3077.03705288641
31
0
0
LINE
8
Základní_vrstva
62
3
10
2911.21480029356
20
3077.03705288641
30
0
11
2911.27510029356
21
3076.82935288641
31
0
0
LINE
8
Základní_vrstva
62
3
10
2911.27510029356
20
3076.82935288641
30
0
11
2911.24830029356
21
3076.60825288641
31
0
0
LINE
8
Základní_vrstva
62
3
10
2911.24830029356
20
3076.60825288641
30
0
11
2911.26840029356
21
3076.38045288641
31
0
0
LINE
8
Základní_vrstva
62
3
10
2911.26840029356
20
3076.38045288641
30
0
11
2911.43590029356
21
3076.20625288641
31
0
0
LINE
8
Základní_vrstva
62
3
10
2911.43590029356
20
3076.20625288641
30
0
11
2911.63020029356
21
3076.07225288641
31
0
0
LINE
8
Základní_vrstva
62
3
10
2911.63020029356
20
3076.07225288641
30
0
11
2911.75750029356
21
3075.89135288641
31
0
0
LINE
8
Základní_vrstva
62
3
10
2911.75750029356
20
3075.89135288641
30
0
11
2911.90490029356
21
3075.73725288641
31
0
0
LINE
8
Základní_vrstva
62
3
10
2911.90490029356
20
3075.73725288641
30
0
11
2912.13270029356
21
3075.71715288641
31
0
0
LINE
8
Základní_vrstva
62
3
10
2912.13270029356
20
3075.71715288641
30
0
11
2912.36720029356
21
3075.73725288641
31
0
0
LINE
8
Základní_vrstva
62
3
10
2912.36720029356
20
3075.73725288641
30
0
11
2912.58160029356
21
3075.67695288641
31
0
0
LINE
8
Základní_vrstva
62
3
10
2912.58160029356
20
3075.67695288641
30
0
11
2912.81610029356
21
3075.65685288641
31
0
0
LINE
8
Základní_vrstva
62
3
10
2912.81610029356
20
3075.65685288641
30
0
11
2913.00370029356
21
3075.78415288641
31
0
0
LINE
8
Základní_vrstva
62
3
10
2913.00370029356
20
3075.78415288641
30
0
11
2913.15780029356
21
3075.94495288641
31
0
0
LINE
8
Základní_vrstva
62
3
10
2913.15780029356
20
3075.94495288641
30
0
11
2913.36550029356
21
3076.03875288641
31
0
0
LINE
8
Základní_vrstva
62
3
10
2913.36550029356
20
3076.03875288641
30
0
11
2913.55980029356
21
3076.17945288641
31
0
0
LINE
8
Základní_vrstva
62
3
10
2913.55980029356
20
3076.17945288641
30
0
11
2913.62680029356
21
3076.40725288641
31
0
0
LINE
8
Základní_vrstva
62
3
10
2913.62680029356
20
3076.40725288641
30
0
11
2913.64020029356
21
3076.63505288641
31
0
0
LINE
8
Základní_vrstva
62
3
10
2913.64020029356
20
3076.63505288641
30
0
11
2913.73400029356
21
3076.84945288641
31
0
0
LINE
8
Základní_vrstva
62
3
10
2913.73400029356
20
3076.84945288641
30
0
11
2913.79430029356
21
3077.04375288641
31
0
0
CIRCLE
8
Základní_vrstva
62
3
10
2912.47440029356
20
3076.93655288641
30
0
40
0.111666666666679
0
LINE
8
Základní_vrstva
62
3
10
2919.64150654356
20
3078.33359663641
30
0
11
2919.56110654356
21
3078.52119663641
31
0
0
LINE
8
Základní_vrstva
62
3
10
2919.56110654356
20
3078.52119663641
30
0
11
2919.42710654356
21
3078.72889663641
31
0
0
LINE
8
Základní_vrstva
62
3
10
2919.42710654356
20
3078.72889663641
30
0
11
2919.36680654356
21
3078.95669663641
31
0
0
LINE
8
Základní_vrstva
62
3
10
2919.36680654356
20
3078.95669663641
30
0
11
2919.27300654356
21
3079.15769663641
31
0
0
LINE
8
Základní_vrstva
62
3
10
2919.27300654356
20
3079.15769663641
30
0
11
2919.05860654356
21
3079.26489663641
31
0
0
LINE
8
Základní_vrstva
62
3
10
2919.05860654356
20
3079.26489663641
30
0
11
2918.83750654356
21
3079.32519663641
31
0
0
LINE
8
Základní_vrstva
62
3
10
2918.83750654356
20
3079.32519663641
30
0
11
2918.65660654356
21
3079.45249663641
31
0
0
LINE
8
Základní_vrstva
62
3
10
2918.65660654356
20
3079.45249663641
30
0
11
2918.44890654356
21
3079.54629663641
31
0
0
LINE
8
Základní_vrstva
62
3
10
2918.44890654356
20
3079.54629663641
30
0
11
2918.22780654356
21
3079.48599663641
31
0
0
LINE
8
Základní_vrstva
62
3
10
2918.22780654356
20
3079.48599663641
30
0
11
2918.03350654356
21
3079.39219663641
31
0
0
LINE
8
Základní_vrstva
62
3
10
2918.03350654356
20
3079.39219663641
30
0
11
2917.80570654356
21
3079.37209663641
31
0
0
LINE
8
Základní_vrstva
62
3
10
2917.80570654356
20
3079.37209663641
30
0
11
2917.57790654356
21
3079.31849663641
31
0
0
LINE
8
Základní_vrstva
62
3
10
2917.57790654356
20
3079.31849663641
30
0
11
2917.43720654356
21
3079.12419663641
31
0
0
LINE
8
Základní_vrstva
62
3
10
2917.43720654356
20
3079.12419663641
30
0
11
2917.33670654356
21
3078.91649663641
31
0
0
LINE
8
Základní_vrstva
62
3
10
2917.33670654356
20
3078.91649663641
30
0
11
2917.18260654356
21
3078.76239663641
31
0
0
LINE
8
Základní_vrstva
62
3
10
2917.18260654356
20
3078.76239663641
30
0
11
2917.04860654356
21
3078.55469663641
31
0
0
LINE
8
Základní_vrstva
62
3
10
2917.04860654356
20
3078.55469663641
30
0
11
2917.06870654356
21
3078.32689663641
31
0
0
LINE
8
Základní_vrstva
62
3
10
2917.06870654356
20
3078.32689663641
30
0
11
2917.12900654356
21
3078.11919663641
31
0
0
LINE
8
Základní_vrstva
62
3
10
2917.12900654356
20
3078.11919663641
30
0
11
2917.10220654356
21
3077.89809663641
31
0
0
LINE
8
Základní_vrstva
62
3
10
2917.10220654356
20
3077.89809663641
30
0
11
2917.12230654356
21
3077.67029663641
31
0
0
LINE
8
Základní_vrstva
62
3
10
2917.12230654356
20
3077.67029663641
30
0
11
2917.28980654356
21
3077.49609663641
31
0
0
LINE
8
Základní_vrstva
62
3
10
2917.28980654356
20
3077.49609663641
30
0
11
2917.48410654356
21
3077.36209663641
31
0
0
LINE
8
Základní_vrstva
62
3
10
2917.48410654356
20
3077.36209663641
30
0
11
2917.61140654356
21
3077.18119663641
31
0
0
LINE
8
Základní_vrstva
62
3
10
2917.61140654356
20
3077.18119663641
30
0
11
2917.75880654356
21
3077.02709663641
31
0
0
LINE
8
Základní_vrstva
62
3
10
2917.75880654356
20
3077.02709663641
30
0
11
2917.98660654356
21
3077.00699663641
31
0
0
LINE
8
Základní_vrstva
62
3
10
2917.98660654356
20
3077.00699663641
30
0
11
2918.22110654356
21
3077.02709663641
31
0
0
LINE
8
Základní_vrstva
62
3
10
2918.22110654356
20
3077.02709663641
30
0
11
2918.43550654356
21
3076.96679663641
31
0
0
LINE
8
Základní_vrstva
62
3
10
2918.43550654356
20
3076.96679663641
30
0
11
2918.67000654356
21
3076.94669663641
31
0
0
LINE
8
Základní_vrstva
62
3
10
2918.67000654356
20
3076.94669663641
30
0
11
2918.85760654356
21
3077.07399663641
31
0
0
LINE
8
Základní_vrstva
62
3
10
2918.85760654356
20
3077.07399663641
30
0
11
2919.01170654356
21
3077.23479663641
31
0
0
LINE
8
Základní_vrstva
62
3
10
2919.01170654356
20
3077.23479663641
30
0
11
2919.21940654356
21
3077.32859663641
31
0
0
LINE
8
Základní_vrstva
62
3
10
2919.21940654356
20
3077.32859663641
30
0
11
2919.41370654356
21
3077.46929663641
31
0
0
LINE
8
Základní_vrstva
62
3
10
2919.41370654356
20
3077.46929663641
30
0
11
2919.48070654356
21
3077.69709663641
31
0
0
LINE
8
Základní_vrstva
62
3
10
2919.48070654356
20
3077.69709663641
30
0
11
2919.49410654356
21
3077.92489663641
31
0
0
LINE
8
Základní_vrstva
62
3
10
2919.49410654356
20
3077.92489663641
30
0
11
2919.58790654356
21
3078.13929663641
31
0
0
LINE
8
Základní_vrstva
62
3
10
2919.58790654356
20
3078.13929663641
30
0
11
2919.64820654356
21
3078.33359663641
31
0
0
CIRCLE
8
Základní_vrstva
62
3
10
2918.32830654356
20
3078.22639663641
30
0
40
0.111666666666679
0
LINE
8
Základní_vrstva
62
3
10
2924.90010029356
20
3079.52422163641
30
0
11
2924.81970029356
21
3079.71182163641
31
0
0
LINE
8
Základní_vrstva
62
3
10
2924.81970029356
20
3079.71182163641
30
0
11
2924.68570029356
21
3079.91952163641
31
0
0
LINE
8
Základní_vrstva
62
3
10
2924.68570029356
20
3079.91952163641
30
0
11
2924.62540029356
21
3080.14732163641
31
0
0
LINE
8
Základní_vrstva
62
3
10
2924.62540029356
20
3080.14732163641
30
0
11
2924.53160029356
21
3080.34832163641
31
0
0
LINE
8
Základní_vrstva
62
3
10
2924.53160029356
20
3080.34832163641
30
0
11
2924.31720029356
21
3080.45552163641
31
0
0
LINE
8
Základní_vrstva
62
3
10
2924.31720029356
20
3080.45552163641
30
0
11
2924.09610029356
21
3080.51582163641
31
0
0
LINE
8
Základní_vrstva
62
3
10
2924.09610029356
20
3080.51582163641
30
0
11
2923.91520029356
21
3080.64312163641
31
0
0
LINE
8
Základní_vrstva
62
3
10
2923.91520029356
20
3080.64312163641
30
0
11
2923.70750029356
21
3080.73692163641
31
0
0
LINE
8
Základní_vrstva
62
3
10
2923.70750029356
20
3080.73692163641
30
0
11
2923.48640029356
21
3080.67662163641
31
0
0
LINE
8
Základní_vrstva
62
3
10
2923.48640029356
20
3080.67662163641
30
0
11
2923.29210029356
21
3080.58282163641
31
0
0
LINE
8
Základní_vrstva
62
3
10
2923.29210029356
20
3080.58282163641
30
0
11
2923.06430029356
21
3080.56272163641
31
0
0
LINE
8
Základní_vrstva
62
3
10
2923.06430029356
20
3080.56272163641
30
0
11
2922.83650029356
21
3080.50912163641
31
0
0
LINE
8
Základní_vrstva
62
3
10
2922.83650029356
20
3080.50912163641
30
0
11
2922.69580029356
21
3080.31482163641
31
0
0
LINE
8
Základní_vrstva
62
3
10
2922.69580029356
20
3080.31482163641
30
0
11
2922.59530029356
21
3080.10712163641
31
0
0
LINE
8
Základní_vrstva
62
3
10
2922.59530029356
20
3080.10712163641
30
0
11
2922.44120029356
21
3079.95302163641
31
0
0
LINE
8
Základní_vrstva
62
3
10
2922.44120029356
20
3079.95302163641
30
0
11
2922.30720029356
21
3079.74532163641
31
0
0
LINE
8
Základní_vrstva
62
3
10
2922.30720029356
20
3079.74532163641
30
0
11
2922.32730029356
21
3079.51752163641
31
0
0
LINE
8
Základní_vrstva
62
3
10
2922.32730029356
20
3079.51752163641
30
0
11
2922.38760029356
21
3079.30982163641
31
0
0
LINE
8
Základní_vrstva
62
3
10
2922.38760029356
20
3079.30982163641
30
0
11
2922.36080029356
21
3079.08872163641
31
0
0
LINE
8
Základní_vrstva
62
3
10
2922.36080029356
20
3079.08872163641
30
0
11
2922.38090029356
21
3078.86092163641
31
0
0
LINE
8
Základní_vrstva
62
3
10
2922.38090029356
20
3078.86092163641
30
0
11
2922.54840029356
21
3078.68672163641
31
0
0
LINE
8
Základní_vrstva
62
3
10
2922.54840029356
20
3078.68672163641
30
0
11
2922.74270029356
21
3078.55272163641
31
0
0
LINE
8
Základní_vrstva
62
3
10
2922.74270029356
20
3078.55272163641
30
0
11
2922.87000029356
21
3078.37182163641
31
0
0
LINE
8
Základní_vrstva
62
3
10
2922.87000029356
20
3078.37182163641
30
0
11
2923.01740029356
21
3078.21772163641
31
0
0
LINE
8
Základní_vrstva
62
3
10
2923.01740029356
20
3078.21772163641
30
0
11
2923.24520029356
21
3078.19762163641
31
0
0
LINE
8
Základní_vrstva
62
3
10
2923.24520029356
20
3078.19762163641
30
0
11
2923.47970029356
21
3078.21772163641
31
0
0
LINE
8
Základní_vrstva
62
3
10
2923.47970029356
20
3078.21772163641
30
0
11
2923.69410029356
21
3078.15742163641
31
0
0
LINE
8
Základní_vrstva
62
3
10
2923.69410029356
20
3078.15742163641
30
0
11
2923.92860029356
21
3078.13732163641
31
0
0
LINE
8
Základní_vrstva
62
3
10
2923.92860029356
20
3078.13732163641
30
0
11
2924.11620029356
21
3078.26462163641
31
0
0
LINE
8
Základní_vrstva
62
3
10
2924.11620029356
20
3078.26462163641
30
0
11
2924.27030029356
21
3078.42542163641
31
0
0
LINE
8
Základní_vrstva
62
3
10
2924.27030029356
20
3078.42542163641
30
0
11
2924.47800029356
21
3078.51922163641
31
0
0
LINE
8
Základní_vrstva
62
3
10
2924.47800029356
20
3078.51922163641
30
0
11
2924.67230029356
21
3078.65992163641
31
0
0
LINE
8
Základní_vrstva
62
3
10
2924.67230029356
20
3078.65992163641
30
0
11
2924.73930029356
21
3078.88772163641
31
0
0
LINE
8
Základní_vrstva
62
3
10
2924.73930029356
20
3078.88772163641
30
0
11
2924.75270029356
21
3079.11552163641
31
0
0
LINE
8
Základní_vrstva
62
3
10
2924.75270029356
20
3079.11552163641
30
0
11
2924.84650029356
21
3079.32992163641
31
0
0
LINE
8
Základní_vrstva
62
3
10
2924.84650029356
20
3079.32992163641
30
0
11
2924.90680029356
21
3079.52422163641
31
0
0
CIRCLE
8
Základní_vrstva
62
3
10
2923.58690029356
20
3079.41702163641
30
0
40
0.111666666666679
0
LINE
8
Základní_vrstva
62
3
10
2930.05947529356
20
3080.91328413641
30
0
11
2929.97907529356
21
3081.10088413641
31
0
0
LINE
8
Základní_vrstva
62
3
10
2929.97907529356
20
3081.10088413641
30
0
11
2929.84507529356
21
3081.30858413641
31
0
0
LINE
8
Základní_vrstva
62
3
10
2929.84507529356
20
3081.30858413641
30
0
11
2929.78477529356
21
3081.53638413641
31
0
0
LINE
8
Základní_vrstva
62
3
10
2929.78477529356
20
3081.53638413641
30
0
11
2929.69097529356
21
3081.73738413641
31
0
0
LINE
8
Základní_vrstva
62
3
10
2929.69097529356
20
3081.73738413641
30
0
11
2929.47657529356
21
3081.84458413641
31
0
0
LINE
8
Základní_vrstva
62
3
10
2929.47657529356
20
3081.84458413641
30
0
11
2929.25547529356
21
3081.90488413641
31
0
0
LINE
8
Základní_vrstva
62
3
10
2929.25547529356
20
3081.90488413641
30
0
11
2929.07457529356
21
3082.03218413641
31
0
0
LINE
8
Základní_vrstva
62
3
10
2929.07457529356
20
3082.03218413641
30
0
11
2928.86687529356
21
3082.12598413641
31
0
0
LINE
8
Základní_vrstva
62
3
10
2928.86687529356
20
3082.12598413641
30
0
11
2928.64577529356
21
3082.06568413641
31
0
0
LINE
8
Základní_vrstva
62
3
10
2928.64577529356
20
3082.06568413641
30
0
11
2928.45147529356
21
3081.97188413641
31
0
0
LINE
8
Základní_vrstva
62
3
10
2928.45147529356
20
3081.97188413641
30
0
11
2928.22367529356
21
3081.95178413641
31
0
0
LINE
8
Základní_vrstva
62
3
10
2928.22367529356
20
3081.95178413641
30
0
11
2927.99587529356
21
3081.89818413641
31
0
0
LINE
8
Základní_vrstva
62
3
10
2927.99587529356
20
3081.89818413641
30
0
11
2927.85517529356
21
3081.70388413641
31
0
0
LINE
8
Základní_vrstva
62
3
10
2927.85517529356
20
3081.70388413641
30
0
11
2927.75467529356
21
3081.49618413641
31
0
0
LINE
8
Základní_vrstva
62
3
10
2927.75467529356
20
3081.49618413641
30
0
11
2927.60057529356
21
3081.34208413641
31
0
0
LINE
8
Základní_vrstva
62
3
10
2927.60057529356
20
3081.34208413641
30
0
11
2927.46657529356
21
3081.13438413641
31
0
0
LINE
8
Základní_vrstva
62
3
10
2927.46657529356
20
3081.13438413641
30
0
11
2927.48667529356
21
3080.90658413641
31
0
0
LINE
8
Základní_vrstva
62
3
10
2927.48667529356
20
3080.90658413641
30
0
11
2927.54697529356
21
3080.69888413641
31
0
0
LINE
8
Základní_vrstva
62
3
10
2927.54697529356
20
3080.69888413641
30
0
11
2927.52017529356
21
3080.47778413641
31
0
0
LINE
8
Základní_vrstva
62
3
10
2927.52017529356
20
3080.47778413641
30
0
11
2927.54027529356
21
3080.24998413641
31
0
0
LINE
8
Základní_vrstva
62
3
10
2927.54027529356
20
3080.24998413641
30
0
11
2927.70777529356
21
3080.07578413641
31
0
0
LINE
8
Základní_vrstva
62
3
10
2927.70777529356
20
3080.07578413641
30
0
11
2927.90207529356
21
3079.94178413641
31
0
0
LINE
8
Základní_vrstva
62
3
10
2927.90207529356
20
3079.94178413641
30
0
11
2928.02937529356
21
3079.76088413641
31
0
0
LINE
8
Základní_vrstva
62
3
10
2928.02937529356
20
3079.76088413641
30
0
11
2928.17677529356
21
3079.60678413641
31
0
0
LINE
8
Základní_vrstva
62
3
10
2928.17677529356
20
3079.60678413641
30
0
11
2928.40457529356
21
3079.58668413641
31
0
0
LINE
8
Základní_vrstva
62
3
10
2928.40457529356
20
3079.58668413641
30
0
11
2928.63907529356
21
3079.60678413641
31
0
0
LINE
8
Základní_vrstva
62
3
10
2928.63907529356
20
3079.60678413641
30
0
11
2928.85347529356
21
3079.54648413641
31
0
0
LINE
8
Základní_vrstva
62
3
10
2928.85347529356
20
3079.54648413641
30
0
11
2929.08797529356
21
3079.52638413641
31
0
0
LINE
8
Základní_vrstva
62
3
10
2929.08797529356
20
3079.52638413641
30
0
11
2929.27557529356
21
3079.65368413641
31
0
0
LINE
8
Základní_vrstva
62
3
10
2929.27557529356
20
3079.65368413641
30
0
11
2929.42967529356
21
3079.81448413641
31
0
0
LINE
8
Základní_vrstva
62
3
10
2929.42967529356
20
3079.81448413641
30
0
11
2929.63737529356
21
3079.90828413641
31
0
0
LINE
8
Základní_vrstva
62
3
10
2929.63737529356
20
3079.90828413641
30
0
11
2929.83167529356
21
3080.04898413641
31
0
0
LINE
8
Základní_vrstva
62
3
10
2929.83167529356
20
3080.04898413641
30
0
11
2929.89867529356
21
3080.27678413641
31
0
0
LINE
8
Základní_vrstva
62
3
10
2929.89867529356
20
3080.27678413641
30
0
11
2929.91207529356
21
3080.50458413641
31
0
0
LINE
8
Základní_vrstva
62
3
10
2929.91207529356
20
3080.50458413641
30
0
11
2930.00587529356
21
3080.71898413641
31
0
0
LINE
8
Základní_vrstva
62
3
10
2930.00587529356
20
3080.71898413641
30
0
11
2930.06617529356
21
3080.91328413641
31
0
0
CIRCLE
8
Základní_vrstva
62
3
10
2928.74627529356
20
3080.80608413641
30
0
40
0.111666666666679
0
LINE
8
Základní_vrstva
62
3
10
2935.61572529356
20
3082.20312788641
30
0
11
2935.53532529356
21
3082.39072788641
31
0
0
LINE
8
Základní_vrstva
62
3
10
2935.53532529356
20
3082.39072788641
30
0
11
2935.40132529356
21
3082.59842788641
31
0
0
LINE
8
Základní_vrstva
62
3
10
2935.40132529356
20
3082.59842788641
30
0
11
2935.34102529356
21
3082.82622788641
31
0
0
LINE
8
Základní_vrstva
62
3
10
2935.34102529356
20
3082.82622788641
30
0
11
2935.24722529356
21
3083.02722788641
31
0
0
LINE
8
Základní_vrstva
62
3
10
2935.24722529356
20
3083.02722788641
30
0
11
2935.03282529356
21
3083.13442788641
31
0
0
LINE
8
Základní_vrstva
62
3
10
2935.03282529356
20
3083.13442788641
30
0
11
2934.81172529356
21
3083.19472788641
31
0
0
LINE
8
Základní_vrstva
62
3
10
2934.81172529356
20
3083.19472788641
30
0
11
2934.63082529356
21
3083.32202788641
31
0
0
LINE
8
Základní_vrstva
62
3
10
2934.63082529356
20
3083.32202788641
30
0
11
2934.42312529356
21
3083.41582788641
31
0
0
LINE
8
Základní_vrstva
62
3
10
2934.42312529356
20
3083.41582788641
30
0
11
2934.20202529356
21
3083.35552788641
31
0
0
LINE
8
Základní_vrstva
62
3
10
2934.20202529356
20
3083.35552788641
30
0
11
2934.00772529356
21
3083.26172788641
31
0
0
LINE
8
Základní_vrstva
62
3
10
2934.00772529356
20
3083.26172788641
30
0
11
2933.77992529356
21
3083.24162788641
31
0
0
LINE
8
Základní_vrstva
62
3
10
2933.77992529356
20
3083.24162788641
30
0
11
2933.55212529356
21
3083.18802788641
31
0
0
LINE
8
Základní_vrstva
62
3
10
2933.55212529356
20
3083.18802788641
30
0
11
2933.41142529356
21
3082.99372788641
31
0
0
LINE
8
Základní_vrstva
62
3
10
2933.41142529356
20
3082.99372788641
30
0
11
2933.31092529356
21
3082.78602788641
31
0
0
LINE
8
Základní_vrstva
62
3
10
2933.31092529356
20
3082.78602788641
30
0
11
2933.15682529356
21
3082.63192788641
31
0
0
LINE
8
Základní_vrstva
62
3
10
2933.15682529356
20
3082.63192788641
30
0
11
2933.02282529356
21
3082.42422788641
31
0
0
LINE
8
Základní_vrstva
62
3
10
2933.02282529356
20
3082.42422788641
30
0
11
2933.04292529356
21
3082.19642788641
31
0
0
LINE
8
Základní_vrstva
62
3
10
2933.04292529356
20
3082.19642788641
30
0
11
2933.10322529356
21
3081.98872788641
31
0
0
LINE
8
Základní_vrstva
62
3
10
2933.10322529356
20
3081.98872788641
30
0
11
2933.07642529356
21
3081.76762788641
31
0
0
LINE
8
Základní_vrstva
62
3
10
2933.07642529356
20
3081.76762788641
30
0
11
2933.09652529356
21
3081.53982788641
31
0
0
LINE
8
Základní_vrstva
62
3
10
2933.09652529356
20
3081.53982788641
30
0
11
2933.26402529356
21
3081.36562788641
31
0
0
LINE
8
Základní_vrstva
62
3
10
2933.26402529356
20
3081.36562788641
30
0
11
2933.45832529356
21
3081.23162788641
31
0
0
LINE
8
Základní_vrstva
62
3
10
2933.45832529356
20
3081.23162788641
30
0
11
2933.58562529356
21
3081.05072788641
31
0
0
LINE
8
Základní_vrstva
62
3
10
2933.58562529356
20
3081.05072788641
30
0
11
2933.73302529356
21
3080.89662788641
31
0
0
LINE
8
Základní_vrstva
62
3
10
2933.73302529356
20
3080.89662788641
30
0
11
2933.96082529356
21
3080.87652788641
31
0
0
LINE
8
Základní_vrstva
62
3
10
2933.96082529356
20
3080.87652788641
30
0
11
2934.19532529356
21
3080.89662788641
31
0
0
LINE
8
Základní_vrstva
62
3
10
2934.19532529356
20
3080.89662788641
30
0
11
2934.40972529356
21
3080.83632788641
31
0
0
LINE
8
Základní_vrstva
62
3
10
2934.40972529356
20
3080.83632788641
30
0
11
2934.64422529356
21
3080.81622788641
31
0
0
LINE
8
Základní_vrstva
62
3
10
2934.64422529356
20
3080.81622788641
30
0
11
2934.83182529356
21
3080.94352788641
31
0
0
LINE
8
Základní_vrstva
62
3
10
2934.83182529356
20
3080.94352788641
30
0
11
2934.98592529356
21
3081.10432788641
31
0
0
LINE
8
Základní_vrstva
62
3
10
2934.98592529356
20
3081.10432788641
30
0
11
2935.19362529356
21
3081.19812788641
31
0
0
LINE
8
Základní_vrstva
62
3
10
2935.19362529356
20
3081.19812788641
30
0
11
2935.38792529356
21
3081.33882788641
31
0
0
LINE
8
Základní_vrstva
62
3
10
2935.38792529356
20
3081.33882788641
30
0
11
2935.45492529356
21
3081.56662788641
31
0
0
LINE
8
Základní_vrstva
62
3
10
2935.45492529356
20
3081.56662788641
30
0
11
2935.46832529356
21
3081.79442788641
31
0
0
LINE
8
Základní_vrstva
62
3
10
2935.46832529356
20
3081.79442788641
30
0
11
2935.56212529356
21
3082.00882788641
31
0
0
LINE
8
Základní_vrstva
62
3
10
2935.56212529356
20
3082.00882788641
30
0
11
2935.62242529356
21
3082.20312788641
31
0
0
CIRCLE
8
Základní_vrstva
62
3
10
2934.30252529356
20
3082.09592788641
30
0
40
0.111666666666679
0
LINE
8
Základní_vrstva
62
3
10
2940.77510029356
20
3083.59219038641
30
0
11
2940.69470029356
21
3083.77979038641
31
0
0
LINE
8
Základní_vrstva
62
3
10
2940.69470029356
20
3083.77979038641
30
0
11
2940.56070029356
21
3083.98749038641
31
0
0
LINE
8
Základní_vrstva
62
3
10
2940.56070029356
20
3083.98749038641
30
0
11
2940.50040029356
21
3084.21529038641
31
0
0
LINE
8
Základní_vrstva
62
3
10
2940.50040029356
20
3084.21529038641
30
0
11
2940.40660029356
21
3084.41629038641
31
0
0
LINE
8
Základní_vrstva
62
3
10
2940.40660029356
20
3084.41629038641
30
0
11
2940.19220029356
21
3084.52349038641
31
0
0
LINE
8
Základní_vrstva
62
3
10
2940.19220029356
20
3084.52349038641
30
0
11
2939.97110029356
21
3084.58379038641
31
0
0
LINE
8
Základní_vrstva
62
3
10
2939.97110029356
20
3084.58379038641
30
0
11
2939.79020029356
21
3084.71109038641
31
0
0
LINE
8
Základní_vrstva
62
3
10
2939.79020029356
20
3084.71109038641
30
0
11
2939.58250029356
21
3084.80489038641
31
0
0
LINE
8
Základní_vrstva
62
3
10
2939.58250029356
20
3084.80489038641
30
0
11
2939.36140029356
21
3084.74459038641
31
0
0
LINE
8
Základní_vrstva
62
3
10
2939.36140029356
20
3084.74459038641
30
0
11
2939.16710029356
21
3084.65079038641
31
0
0
LINE
8
Základní_vrstva
62
3
10
2939.16710029356
20
3084.65079038641
30
0
11
2938.93930029356
21
3084.63069038641
31
0
0
LINE
8
Základní_vrstva
62
3
10
2938.93930029356
20
3084.63069038641
30
0
11
2938.71150029356
21
3084.57709038641
31
0
0
LINE
8
Základní_vrstva
62
3
10
2938.71150029356
20
3084.57709038641
30
0
11
2938.57080029356
21
3084.38279038641
31
0
0
LINE
8
Základní_vrstva
62
3
10
2938.57080029356
20
3084.38279038641
30
0
11
2938.47030029356
21
3084.17509038641
31
0
0
LINE
8
Základní_vrstva
62
3
10
2938.47030029356
20
3084.17509038641
30
0
11
2938.31620029356
21
3084.02099038641
31
0
0
LINE
8
Základní_vrstva
62
3
10
2938.31620029356
20
3084.02099038641
30
0
11
2938.18220029356
21
3083.81329038641
31
0
0
LINE
8
Základní_vrstva
62
3
10
2938.18220029356
20
3083.81329038641
30
0
11
2938.20230029356
21
3083.58549038641
31
0
0
LINE
8
Základní_vrstva
62
3
10
2938.20230029356
20
3083.58549038641
30
0
11
2938.26260029356
21
3083.37779038641
31
0
0
LINE
8
Základní_vrstva
62
3
10
2938.26260029356
20
3083.37779038641
30
0
11
2938.23580029356
21
3083.15669038641
31
0
0
LINE
8
Základní_vrstva
62
3
10
2938.23580029356
20
3083.15669038641
30
0
11
2938.25590029356
21
3082.92889038641
31
0
0
LINE
8
Základní_vrstva
62
3
10
2938.25590029356
20
3082.92889038641
30
0
11
2938.42340029356
21
3082.75469038641
31
0
0
LINE
8
Základní_vrstva
62
3
10
2938.42340029356
20
3082.75469038641
30
0
11
2938.61770029356
21
3082.62069038641
31
0
0
LINE
8
Základní_vrstva
62
3
10
2938.61770029356
20
3082.62069038641
30
0
11
2938.74500029356
21
3082.43979038641
31
0
0
LINE
8
Základní_vrstva
62
3
10
2938.74500029356
20
3082.43979038641
30
0
11
2938.89240029356
21
3082.28569038641
31
0
0
LINE
8
Základní_vrstva
62
3
10
2938.89240029356
20
3082.28569038641
30
0
11
2939.12020029356
21
3082.26559038641
31
0
0
LINE
8
Základní_vrstva
62
3
10
2939.12020029356
20
3082.26559038641
30
0
11
2939.35470029356
21
3082.28569038641
31
0
0
LINE
8
Základní_vrstva
62
3
10
2939.35470029356
20
3082.28569038641
30
0
11
2939.56910029356
21
3082.22539038641
31
0
0
LINE
8
Základní_vrstva
62
3
10
2939.56910029356
20
3082.22539038641
30
0
11
2939.80360029356
21
3082.20529038641
31
0
0
LINE
8
Základní_vrstva
62
3
10
2939.80360029356
20
3082.20529038641
30
0
11
2939.99120029356
21
3082.33259038641
31
0
0
LINE
8
Základní_vrstva
62
3
10
2939.99120029356
20
3082.33259038641
30
0
11
2940.14530029356
21
3082.49339038641
31
0
0
LINE
8
Základní_vrstva
62
3
10
2940.14530029356
20
3082.49339038641
30
0
11
2940.35300029356
21
3082.58719038641
31
0
0
LINE
8
Základní_vrstva
62
3
10
2940.35300029356
20
3082.58719038641
30
0
11
2940.54730029356
21
3082.72789038641
31
0
0
LINE
8
Základní_vrstva
62
3
10
2940.54730029356
20
3082.72789038641
30
0
11
2940.61430029356
21
3082.95569038641
31
0
0
LINE
8
Základní_vrstva
62
3
10
2940.61430029356
20
3082.95569038641
30
0
11
2940.62770029356
21
3083.18349038641
31
0
0
LINE
8
Základní_vrstva
62
3
10
2940.62770029356
20
3083.18349038641
30
0
11
2940.72150029356
21
3083.39789038641
31
0
0
LINE
8
Základní_vrstva
62
3
10
2940.72150029356
20
3083.39789038641
30
0
11
2940.78180029356
21
3083.59219038641
31
0
0
CIRCLE
8
Základní_vrstva
62
3
10
2939.46190029356
20
3083.48499038641
30
0
40
0.111666666666679
0
LINE
8
Základní_vrstva
62
3
10
2946.33135029356
20
3084.88203413641
30
0
11
2946.25095029356
21
3085.06963413641
31
0
0
LINE
8
Základní_vrstva
62
3
10
2946.25095029356
20
3085.06963413641
30
0
11
2946.11695029356
21
3085.27733413641
31
0
0
LINE
8
Základní_vrstva
62
3
10
2946.11695029356
20
3085.27733413641
30
0
11
2946.05665029356
21
3085.50513413641
31
0
0
LINE
8
Základní_vrstva
62
3
10
2946.05665029356
20
3085.50513413641
30
0
11
2945.96285029356
21
3085.70613413641
31
0
0
LINE
8
Základní_vrstva
62
3
10
2945.96285029356
20
3085.70613413641
30
0
11
2945.74845029356
21
3085.81333413641
31
0
0
LINE
8
Základní_vrstva
62
3
10
2945.74845029356
20
3085.81333413641
30
0
11
2945.52735029356
21
3085.87363413641
31
0
0
LINE
8
Základní_vrstva
62
3
10
2945.52735029356
20
3085.87363413641
30
0
11
2945.34645029356
21
3086.00093413641
31
0
0
LINE
8
Základní_vrstva
62
3
10
2945.34645029356
20
3086.00093413641
30
0
11
2945.13875029356
21
3086.09473413641
31
0
0
LINE
8
Základní_vrstva
62
3
10
2945.13875029356
20
3086.09473413641
30
0
11
2944.91765029356
21
3086.03443413641
31
0
0
LINE
8
Základní_vrstva
62
3
10
2944.91765029356
20
3086.03443413641
30
0
11
2944.72335029356
21
3085.94063413641
31
0
0
LINE
8
Základní_vrstva
62
3
10
2944.72335029356
20
3085.94063413641
30
0
11
2944.49555029356
21
3085.92053413641
31
0
0
LINE
8
Základní_vrstva
62
3
10
2944.49555029356
20
3085.92053413641
30
0
11
2944.26775029356
21
3085.86693413641
31
0
0
LINE
8
Základní_vrstva
62
3
10
2944.26775029356
20
3085.86693413641
30
0
11
2944.12705029356
21
3085.67263413641
31
0
0
LINE
8
Základní_vrstva
62
3
10
2944.12705029356
20
3085.67263413641
30
0
11
2944.02655029356
21
3085.46493413641
31
0
0
LINE
8
Základní_vrstva
62
3
10
2944.02655029356
20
3085.46493413641
30
0
11
2943.87245029356
21
3085.31083413641
31
0
0
LINE
8
Základní_vrstva
62
3
10
2943.87245029356
20
3085.31083413641
30
0
11
2943.73845029356
21
3085.10313413641
31
0
0
LINE
8
Základní_vrstva
62
3
10
2943.73845029356
20
3085.10313413641
30
0
11
2943.75855029356
21
3084.87533413641
31
0
0
LINE
8
Základní_vrstva
62
3
10
2943.75855029356
20
3084.87533413641
30
0
11
2943.81885029356
21
3084.66763413641
31
0
0
LINE
8
Základní_vrstva
62
3
10
2943.81885029356
20
3084.66763413641
30
0
11
2943.79205029356
21
3084.44653413641
31
0
0
LINE
8
Základní_vrstva
62
3
10
2943.79205029356
20
3084.44653413641
30
0
11
2943.81215029356
21
3084.21873413641
31
0
0
LINE
8
Základní_vrstva
62
3
10
2943.81215029356
20
3084.21873413641
30
0
11
2943.97965029356
21
3084.04453413641
31
0
0
LINE
8
Základní_vrstva
62
3
10
2943.97965029356
20
3084.04453413641
30
0
11
2944.17395029356
21
3083.91053413641
31
0
0
LINE
8
Základní_vrstva
62
3
10
2944.17395029356
20
3083.91053413641
30
0
11
2944.30125029356
21
3083.72963413641
31
0
0
LINE
8
Základní_vrstva
62
3
10
2944.30125029356
20
3083.72963413641
30
0
11
2944.44865029356
21
3083.57553413641
31
0
0
LINE
8
Základní_vrstva
62
3
10
2944.44865029356
20
3083.57553413641
30
0
11
2944.67645029356
21
3083.55543413641
31
0
0
LINE
8
Základní_vrstva
62
3
10
2944.67645029356
20
3083.55543413641
30
0
11
2944.91095029356
21
3083.57553413641
31
0
0
LINE
8
Základní_vrstva
62
3
10
2944.91095029356
20
3083.57553413641
30
0
11
2945.12535029356
21
3083.51523413641
31
0
0
LINE
8
Základní_vrstva
62
3
10
2945.12535029356
20
3083.51523413641
30
0
11
2945.35985029356
21
3083.49513413641
31
0
0
LINE
8
Základní_vrstva
62
3
10
2945.35985029356
20
3083.49513413641
30
0
11
2945.54745029356
21
3083.62243413641
31
0
0
LINE
8
Základní_vrstva
62
3
10
2945.54745029356
20
3083.62243413641
30
0
11
2945.70155029356
21
3083.78323413641
31
0
0
LINE
8
Základní_vrstva
62
3
10
2945.70155029356
20
3083.78323413641
30
0
11
2945.90925029356
21
3083.87703413641
31
0
0
LINE
8
Základní_vrstva
62
3
10
2945.90925029356
20
3083.87703413641
30
0
11
2946.10355029356
21
3084.01773413641
31
0
0
LINE
8
Základní_vrstva
62
3
10
2946.10355029356
20
3084.01773413641
30
0
11
2946.17055029356
21
3084.24553413641
31
0
0
LINE
8
Základní_vrstva
62
3
10
2946.17055029356
20
3084.24553413641
30
0
11
2946.18395029356
21
3084.47333413641
31
0
0
LINE
8
Základní_vrstva
62
3
10
2946.18395029356
20
3084.47333413641
30
0
11
2946.27775029356
21
3084.68773413641
31
0
0
LINE
8
Základní_vrstva
62
3
10
2946.27775029356
20
3084.68773413641
30
0
11
2946.33805029356
21
3084.88203413641
31
0
0
CIRCLE
8
Základní_vrstva
62
3
10
2945.01815029356
20
3084.77483413641
30
0
40
0.111666666666679
0
LINE
8
Základní_vrstva
62
3
10
2952.08603779356
20
3086.27109663641
30
0
11
2952.00563779356
21
3086.45869663641
31
0
0
LINE
8
Základní_vrstva
62
3
10
2952.00563779356
20
3086.45869663641
30
0
11
2951.87163779356
21
3086.66639663641
31
0
0
LINE
8
Základní_vrstva
62
3
10
2951.87163779356
20
3086.66639663641
30
0
11
2951.81133779356
21
3086.89419663641
31
0
0
LINE
8
Základní_vrstva
62
3
10
2951.81133779356
20
3086.89419663641
30
0
11
2951.71753779356
21
3087.09519663641
31
0
0
LINE
8
Základní_vrstva
62
3
10
2951.71753779356
20
3087.09519663641
30
0
11
2951.50313779356
21
3087.20239663641
31
0
0
LINE
8
Základní_vrstva
62
3
10
2951.50313779356
20
3087.20239663641
30
0
11
2951.28203779356
21
3087.26269663641
31
0
0
LINE
8
Základní_vrstva
62
3
10
2951.28203779356
20
3087.26269663641
30
0
11
2951.10113779356
21
3087.38999663641
31
0
0
LINE
8
Základní_vrstva
62
3
10
2951.10113779356
20
3087.38999663641
30
0
11
2950.89343779356
21
3087.48379663641
31
0
0
LINE
8
Základní_vrstva
62
3
10
2950.89343779356
20
3087.48379663641
30
0
11
2950.67233779356
21
3087.42349663641
31
0
0
LINE
8
Základní_vrstva
62
3
10
2950.67233779356
20
3087.42349663641
30
0
11
2950.47803779356
21
3087.32969663641
31
0
0
LINE
8
Základní_vrstva
62
3
10
2950.47803779356
20
3087.32969663641
30
0
11
2950.25023779356
21
3087.30959663641
31
0
0
LINE
8
Základní_vrstva
62
3
10
2950.25023779356
20
3087.30959663641
30
0
11
2950.02243779356
21
3087.25599663641
31
0
0
LINE
8
Základní_vrstva
62
3
10
2950.02243779356
20
3087.25599663641
30
0
11
2949.88173779356
21
3087.06169663641
31
0
0
LINE
8
Základní_vrstva
62
3
10
2949.88173779356
20
3087.06169663641
30
0
11
2949.78123779356
21
3086.85399663641
31
0
0
LINE
8
Základní_vrstva
62
3
10
2949.78123779356
20
3086.85399663641
30
0
11
2949.62713779356
21
3086.69989663641
31
0
0
LINE
8
Základní_vrstva
62
3
10
2949.62713779356
20
3086.69989663641
30
0
11
2949.49313779356
21
3086.49219663641
31
0
0
LINE
8
Základní_vrstva
62
3
10
2949.49313779356
20
3086.49219663641
30
0
11
2949.51323779356
21
3086.26439663641
31
0
0
LINE
8
Základní_vrstva
62
3
10
2949.51323779356
20
3086.26439663641
30
0
11
2949.57353779356
21
3086.05669663641
31
0
0
LINE
8
Základní_vrstva
62
3
10
2949.57353779356
20
3086.05669663641
30
0
11
2949.54673779356
21
3085.83559663641
31
0
0
LINE
8
Základní_vrstva
62
3
10
2949.54673779356
20
3085.83559663641
30
0
11
2949.56683779356
21
3085.60779663641
31
0
0
LINE
8
Základní_vrstva
62
3
10
2949.56683779356
20
3085.60779663641
30
0
11
2949.73433779356
21
3085.43359663641
31
0
0
LINE
8
Základní_vrstva
62
3
10
2949.73433779356
20
3085.43359663641
30
0
11
2949.92863779356
21
3085.29959663641
31
0
0
LINE
8
Základní_vrstva
62
3
10
2949.92863779356
20
3085.29959663641
30
0
11
2950.05593779356
21
3085.11869663641
31
0
0
LINE
8
Základní_vrstva
62
3
10
2950.05593779356
20
3085.11869663641
30
0
11
2950.20333779356
21
3084.96459663641
31
0
0
LINE
8
Základní_vrstva
62
3
10
2950.20333779356
20
3084.96459663641
30
0
11
2950.43113779356
21
3084.94449663641
31
0
0
LINE
8
Základní_vrstva
62
3
10
2950.43113779356
20
3084.94449663641
30
0
11
2950.66563779356
21
3084.96459663641
31
0
0
LINE
8
Základní_vrstva
62
3
10
2950.66563779356
20
3084.96459663641
30
0
11
2950.88003779356
21
3084.90429663641
31
0
0
LINE
8
Základní_vrstva
62
3
10
2950.88003779356
20
3084.90429663641
30
0
11
2951.11453779356
21
3084.88419663641
31
0
0
LINE
8
Základní_vrstva
62
3
10
2951.11453779356
20
3084.88419663641
30
0
11
2951.30213779356
21
3085.01149663641
31
0
0
LINE
8
Základní_vrstva
62
3
10
2951.30213779356
20
3085.01149663641
30
0
11
2951.45623779356
21
3085.17229663641
31
0
0
LINE
8
Základní_vrstva
62
3
10
2951.45623779356
20
3085.17229663641
30
0
11
2951.66393779356
21
3085.26609663641
31
0
0
LINE
8
Základní_vrstva
62
3
10
2951.66393779356
20
3085.26609663641
30
0
11
2951.85823779356
21
3085.40679663641
31
0
0
LINE
8
Základní_vrstva
62
3
10
2951.85823779356
20
3085.40679663641
30
0
11
2951.92523779356
21
3085.63459663641
31
0
0
LINE
8
Základní_vrstva
62
3
10
2951.92523779356
20
3085.63459663641
30
0
11
2951.93863779356
21
3085.86239663641
31
0
0
LINE
8
Základní_vrstva
62
3
10
2951.93863779356
20
3085.86239663641
30
0
11
2952.03243779356
21
3086.07679663641
31
0
0
LINE
8
Základní_vrstva
62
3
10
2952.03243779356
20
3086.07679663641
30
0
11
2952.09273779356
21
3086.27109663641
31
0
0
CIRCLE
8
Základní_vrstva
62
3
10
2950.77283779356
20
3086.16389663641
30
0
40
0.111666666666679
0
LINE
8
Základní_vrstva
62
3
10
2958.23760029356
20
3087.95781538641
30
0
11
2958.15720029356
21
3088.14541538641
31
0
0
LINE
8
Základní_vrstva
62
3
10
2958.15720029356
20
3088.14541538641
30
0
11
2958.02320029356
21
3088.35311538641
31
0
0
LINE
8
Základní_vrstva
62
3
10
2958.02320029356
20
3088.35311538641
30
0
11
2957.96290029356
21
3088.58091538641
31
0
0
LINE
8
Základní_vrstva
62
3
10
2957.96290029356
20
3088.58091538641
30
0
11
2957.86910029356
21
3088.78191538641
31
0
0
LINE
8
Základní_vrstva
62
3
10
2957.86910029356
20
3088.78191538641
30
0
11
2957.65470029356
21
3088.88911538641
31
0
0
LINE
8
Základní_vrstva
62
3
10
2957.65470029356
20
3088.88911538641
30
0
11
2957.43360029356
21
3088.94941538641
31
0
0
LINE
8
Základní_vrstva
62
3
10
2957.43360029356
20
3088.94941538641
30
0
11
2957.25270029356
21
3089.07671538641
31
0
0
LINE
8
Základní_vrstva
62
3
10
2957.25270029356
20
3089.07671538641
30
0
11
2957.04500029356
21
3089.17051538641
31
0
0
LINE
8
Základní_vrstva
62
3
10
2957.04500029356
20
3089.17051538641
30
0
11
2956.82390029356
21
3089.11021538641
31
0
0
LINE
8
Základní_vrstva
62
3
10
2956.82390029356
20
3089.11021538641
30
0
11
2956.62960029356
21
3089.01641538641
31
0
0
LINE
8
Základní_vrstva
62
3
10
2956.62960029356
20
3089.01641538641
30
0
11
2956.40180029356
21
3088.99631538641
31
0
0
LINE
8
Základní_vrstva
62
3
10
2956.40180029356
20
3088.99631538641
30
0
11
2956.17400029356
21
3088.94271538641
31
0
0
LINE
8
Základní_vrstva
62
3
10
2956.17400029356
20
3088.94271538641
30
0
11
2956.03330029356
21
3088.74841538641
31
0
0
LINE
8
Základní_vrstva
62
3
10
2956.03330029356
20
3088.74841538641
30
0
11
2955.93280029356
21
3088.54071538641
31
0
0
LINE
8
Základní_vrstva
62
3
10
2955.93280029356
20
3088.54071538641
30
0
11
2955.77870029356
21
3088.38661538641
31
0
0
LINE
8
Základní_vrstva
62
3
10
2955.77870029356
20
3088.38661538641
30
0
11
2955.64470029356
21
3088.17891538641
31
0
0
LINE
8
Základní_vrstva
62
3
10
2955.64470029356
20
3088.17891538641
30
0
11
2955.66480029356
21
3087.95111538641
31
0
0
LINE
8
Základní_vrstva
62
3
10
2955.66480029356
20
3087.95111538641
30
0
11
2955.72510029356
21
3087.74341538641
31
0
0
LINE
8
Základní_vrstva
62
3
10
2955.72510029356
20
3087.74341538641
30
0
11
2955.69830029356
21
3087.52231538641
31
0
0
LINE
8
Základní_vrstva
62
3
10
2955.69830029356
20
3087.52231538641
30
0
11
2955.71840029356
21
3087.29451538641
31
0
0
LINE
8
Základní_vrstva
62
3
10
2955.71840029356
20
3087.29451538641
30
0
11
2955.88590029356
21
3087.12031538641
31
0
0
LINE
8
Základní_vrstva
62
3
10
2955.88590029356
20
3087.12031538641
30
0
11
2956.08020029356
21
3086.98631538641
31
0
0
LINE
8
Základní_vrstva
62
3
10
2956.08020029356
20
3086.98631538641
30
0
11
2956.20750029356
21
3086.80541538641
31
0
0
LINE
8
Základní_vrstva
62
3
10
2956.20750029356
20
3086.80541538641
30
0
11
2956.35490029356
21
3086.65131538641
31
0
0
LINE
8
Základní_vrstva
62
3
10
2956.35490029356
20
3086.65131538641
30
0
11
2956.58270029356
21
3086.63121538641
31
0
0
LINE
8
Základní_vrstva
62
3
10
2956.58270029356
20
3086.63121538641
30
0
11
2956.81720029356
21
3086.65131538641
31
0
0
LINE
8
Základní_vrstva
62
3
10
2956.81720029356
20
3086.65131538641
30
0
11
2957.03160029356
21
3086.59101538641
31
0
0
LINE
8
Základní_vrstva
62
3
10
2957.03160029356
20
3086.59101538641
30
0
11
2957.26610029356
21
3086.57091538641
31
0
0
LINE
8
Základní_vrstva
62
3
10
2957.26610029356
20
3086.57091538641
30
0
11
2957.45370029356
21
3086.69821538641
31
0
0
LINE
8
Základní_vrstva
62
3
10
2957.45370029356
20
3086.69821538641
30
0
11
2957.60780029356
21
3086.85901538641
31
0
0
LINE
8
Základní_vrstva
62
3
10
2957.60780029356
20
3086.85901538641
30
0
11
2957.81550029356
21
3086.95281538641
31
0
0
LINE
8
Základní_vrstva
62
3
10
2957.81550029356
20
3086.95281538641
30
0
11
2958.00980029356
21
3087.09351538641
31
0
0
LINE
8
Základní_vrstva
62
3
10
2958.00980029356
20
3087.09351538641
30
0
11
2958.07680029356
21
3087.32131538641
31
0
0
LINE
8
Základní_vrstva
62
3
10
2958.07680029356
20
3087.32131538641
30
0
11
2958.09020029356
21
3087.54911538641
31
0
0
LINE
8
Základní_vrstva
62
3
10
2958.09020029356
20
3087.54911538641
30
0
11
2958.18400029356
21
3087.76351538641
31
0
0
LINE
8
Základní_vrstva
62
3
10
2958.18400029356
20
3087.76351538641
30
0
11
2958.24430029356
21
3087.95781538641
31
0
0
CIRCLE
8
Základní_vrstva
62
3
10
2956.92440029356
20
3087.85061538641
30
0
40
0.111666666666679
0
LINE
8
Základní_vrstva
62
3
10
2964.58760029356
20
3089.44609663641
30
0
11
2964.50720029356
21
3089.63369663641
31
0
0
LINE
8
Základní_vrstva
62
3
10
2964.50720029356
20
3089.63369663641
30
0
11
2964.37320029356
21
3089.84139663641
31
0
0
LINE
8
Základní_vrstva
62
3
10
2964.37320029356
20
3089.84139663641
30
0
11
2964.31290029356
21
3090.06919663641
31
0
0
LINE
8
Základní_vrstva
62
3
10
2964.31290029356
20
3090.06919663641
30
0
11
2964.21910029356
21
3090.27019663641
31
0
0
LINE
8
Základní_vrstva
62
3
10
2964.21910029356
20
3090.27019663641
30
0
11
2964.00470029356
21
3090.37739663641
31
0
0
LINE
8
Základní_vrstva
62
3
10
2964.00470029356
20
3090.37739663641
30
0
11
2963.78360029356
21
3090.43769663641
31
0
0
LINE
8
Základní_vrstva
62
3
10
2963.78360029356
20
3090.43769663641
30
0
11
2963.60270029356
21
3090.56499663641
31
0
0
LINE
8
Základní_vrstva
62
3
10
2963.60270029356
20
3090.56499663641
30
0
11
2963.39500029356
21
3090.65879663641
31
0
0
LINE
8
Základní_vrstva
62
3
10
2963.39500029356
20
3090.65879663641
30
0
11
2963.17390029356
21
3090.59849663641
31
0
0
LINE
8
Základní_vrstva
62
3
10
2963.17390029356
20
3090.59849663641
30
0
11
2962.97960029356
21
3090.50469663641
31
0
0
LINE
8
Základní_vrstva
62
3
10
2962.97960029356
20
3090.50469663641
30
0
11
2962.75180029356
21
3090.48459663641
31
0
0
LINE
8
Základní_vrstva
62
3
10
2962.75180029356
20
3090.48459663641
30
0
11
2962.52400029356
21
3090.43099663641
31
0
0
LINE
8
Základní_vrstva
62
3
10
2962.52400029356
20
3090.43099663641
30
0
11
2962.38330029356
21
3090.23669663641
31
0
0
LINE
8
Základní_vrstva
62
3
10
2962.38330029356
20
3090.23669663641
30
0
11
2962.28280029356
21
3090.02899663641
31
0
0
LINE
8
Základní_vrstva
62
3
10
2962.28280029356
20
3090.02899663641
30
0
11
2962.12870029356
21
3089.87489663641
31
0
0
LINE
8
Základní_vrstva
62
3
10
2962.12870029356
20
3089.87489663641
30
0
11
2961.99470029356
21
3089.66719663641
31
0
0
LINE
8
Základní_vrstva
62
3
10
2961.99470029356
20
3089.66719663641
30
0
11
2962.01480029356
21
3089.43939663641
31
0
0
LINE
8
Základní_vrstva
62
3
10
2962.01480029356
20
3089.43939663641
30
0
11
2962.07510029356
21
3089.23169663641
31
0
0
LINE
8
Základní_vrstva
62
3
10
2962.07510029356
20
3089.23169663641
30
0
11
2962.04830029356
21
3089.01059663641
31
0
0
LINE
8
Základní_vrstva
62
3
10
2962.04830029356
20
3089.01059663641
30
0
11
2962.06840029356
21
3088.78279663641
31
0
0
LINE
8
Základní_vrstva
62
3
10
2962.06840029356
20
3088.78279663641
30
0
11
2962.23590029356
21
3088.60859663641
31
0
0
LINE
8
Základní_vrstva
62
3
10
2962.23590029356
20
3088.60859663641
30
0
11
2962.43020029356
21
3088.47459663641
31
0
0
LINE
8
Základní_vrstva
62
3
10
2962.43020029356
20
3088.47459663641
30
0
11
2962.55750029356
21
3088.29369663641
31
0
0
LINE
8
Základní_vrstva
62
3
10
2962.55750029356
20
3088.29369663641
30
0
11
2962.70490029356
21
3088.13959663641
31
0
0
LINE
8
Základní_vrstva
62
3
10
2962.70490029356
20
3088.13959663641
30
0
11
2962.93270029356
21
3088.11949663641
31
0
0
LINE
8
Základní_vrstva
62
3
10
2962.93270029356
20
3088.11949663641
30
0
11
2963.16720029356
21
3088.13959663641
31
0
0
LINE
8
Základní_vrstva
62
3
10
2963.16720029356
20
3088.13959663641
30
0
11
2963.38160029356
21
3088.07929663641
31
0
0
LINE
8
Základní_vrstva
62
3
10
2963.38160029356
20
3088.07929663641
30
0
11
2963.61610029356
21
3088.05919663641
31
0
0
LINE
8
Základní_vrstva
62
3
10
2963.61610029356
20
3088.05919663641
30
0
11
2963.80370029356
21
3088.18649663641
31
0
0
LINE
8
Základní_vrstva
62
3
10
2963.80370029356
20
3088.18649663641
30
0
11
2963.95780029356
21
3088.34729663641
31
0
0
LINE
8
Základní_vrstva
62
3
10
2963.95780029356
20
3088.34729663641
30
0
11
2964.16550029356
21
3088.44109663641
31
0
0
LINE
8
Základní_vrstva
62
3
10
2964.16550029356
20
3088.44109663641
30
0
11
2964.35980029356
21
3088.58179663641
31
0
0
LINE
8
Základní_vrstva
62
3
10
2964.35980029356
20
3088.58179663641
30
0
11
2964.42680029356
21
3088.80959663641
31
0
0
LINE
8
Základní_vrstva
62
3
10
2964.42680029356
20
3088.80959663641
30
0
11
2964.44020029356
21
3089.03739663641
31
0
0
LINE
8
Základní_vrstva
62
3
10
2964.44020029356
20
3089.03739663641
30
0
11
2964.53400029356
21
3089.25179663641
31
0
0
LINE
8
Základní_vrstva
62
3
10
2964.53400029356
20
3089.25179663641
30
0
11
2964.59430029356
21
3089.44609663641
31
0
0
CIRCLE
8
Základní_vrstva
62
3
10
2963.27440029356
20
3089.33889663641
30
0
40
0.111666666666679
0
LINE
8
Základní_vrstva
62
3
10
2970.63994404356
20
3090.83515913641
30
0
11
2970.55954404356
21
3091.02275913641
31
0
0
LINE
8
Základní_vrstva
62
3
10
2970.55954404356
20
3091.02275913641
30
0
11
2970.42554404356
21
3091.23045913641
31
0
0
LINE
8
Základní_vrstva
62
3
10
2970.42554404356
20
3091.23045913641
30
0
11
2970.36524404356
21
3091.45825913641
31
0
0
LINE
8
Základní_vrstva
62
3
10
2970.36524404356
20
3091.45825913641
30
0
11
2970.27144404356
21
3091.65925913641
31
0
0
LINE
8
Základní_vrstva
62
3
10
2970.27144404356
20
3091.65925913641
30
0
11
2970.05704404356
21
3091.76645913641
31
0
0
LINE
8
Základní_vrstva
62
3
10
2970.05704404356
20
3091.76645913641
30
0
11
2969.83594404356
21
3091.82675913641
31
0
0
LINE
8
Základní_vrstva
62
3
10
2969.83594404356
20
3091.82675913641
30
0
11
2969.65504404356
21
3091.95405913641
31
0
0
LINE
8
Základní_vrstva
62
3
10
2969.65504404356
20
3091.95405913641
30
0
11
2969.44734404356
21
3092.04785913641
31
0
0
LINE
8
Základní_vrstva
62
3
10
2969.44734404356
20
3092.04785913641
30
0
11
2969.22624404356
21
3091.98755913641
31
0
0
LINE
8
Základní_vrstva
62
3
10
2969.22624404356
20
3091.98755913641
30
0
11
2969.03194404356
21
3091.89375913641
31
0
0
LINE
8
Základní_vrstva
62
3
10
2969.03194404356
20
3091.89375913641
30
0
11
2968.80414404356
21
3091.87365913641
31
0
0
LINE
8
Základní_vrstva
62
3
10
2968.80414404356
20
3091.87365913641
30
0
11
2968.57634404356
21
3091.82005913641
31
0
0
LINE
8
Základní_vrstva
62
3
10
2968.57634404356
20
3091.82005913641
30
0
11
2968.43564404356
21
3091.62575913641
31
0
0
LINE
8
Základní_vrstva
62
3
10
2968.43564404356
20
3091.62575913641
30
0
11
2968.33514404356
21
3091.41805913641
31
0
0
LINE
8
Základní_vrstva
62
3
10
2968.33514404356
20
3091.41805913641
30
0
11
2968.18104404356
21
3091.26395913641
31
0
0
LINE
8
Základní_vrstva
62
3
10
2968.18104404356
20
3091.26395913641
30
0
11
2968.04704404356
21
3091.05625913641
31
0
0
LINE
8
Základní_vrstva
62
3
10
2968.04704404356
20
3091.05625913641
30
0
11
2968.06714404356
21
3090.82845913641
31
0
0
LINE
8
Základní_vrstva
62
3
10
2968.06714404356
20
3090.82845913641
30
0
11
2968.12744404356
21
3090.62075913641
31
0
0
LINE
8
Základní_vrstva
62
3
10
2968.12744404356
20
3090.62075913641
30
0
11
2968.10064404356
21
3090.39965913641
31
0
0
LINE
8
Základní_vrstva
62
3
10
2968.10064404356
20
3090.39965913641
30
0
11
2968.12074404356
21
3090.17185913641
31
0
0
LINE
8
Základní_vrstva
62
3
10
2968.12074404356
20
3090.17185913641
30
0
11
2968.28824404356
21
3089.99765913641
31
0
0
LINE
8
Základní_vrstva
62
3
10
2968.28824404356
20
3089.99765913641
30
0
11
2968.48254404356
21
3089.86365913641
31
0
0
LINE
8
Základní_vrstva
62
3
10
2968.48254404356
20
3089.86365913641
30
0
11
2968.60984404356
21
3089.68275913641
31
0
0
LINE
8
Základní_vrstva
62
3
10
2968.60984404356
20
3089.68275913641
30
0
11
2968.75724404356
21
3089.52865913641
31
0
0
LINE
8
Základní_vrstva
62
3
10
2968.75724404356
20
3089.52865913641
30
0
11
2968.98504404356
21
3089.50855913641
31
0
0
LINE
8
Základní_vrstva
62
3
10
2968.98504404356
20
3089.50855913641
30
0
11
2969.21954404356
21
3089.52865913641
31
0
0
LINE
8
Základní_vrstva
62
3
10
2969.21954404356
20
3089.52865913641
30
0
11
2969.43394404356
21
3089.46835913641
31
0
0
LINE
8
Základní_vrstva
62
3
10
2969.43394404356
20
3089.46835913641
30
0
11
2969.66844404356
21
3089.44825913641
31
0
0
LINE
8
Základní_vrstva
62
3
10
2969.66844404356
20
3089.44825913641
30
0
11
2969.85604404356
21
3089.57555913641
31
0
0
LINE
8
Základní_vrstva
62
3
10
2969.85604404356
20
3089.57555913641
30
0
11
2970.01014404356
21
3089.73635913641
31
0
0
LINE
8
Základní_vrstva
62
3
10
2970.01014404356
20
3089.73635913641
30
0
11
2970.21784404356
21
3089.83015913641
31
0
0
LINE
8
Základní_vrstva
62
3
10
2970.21784404356
20
3089.83015913641
30
0
11
2970.41214404356
21
3089.97085913641
31
0
0
LINE
8
Základní_vrstva
62
3
10
2970.41214404356
20
3089.97085913641
30
0
11
2970.47914404356
21
3090.19865913641
31
0
0
LINE
8
Základní_vrstva
62
3
10
2970.47914404356
20
3090.19865913641
30
0
11
2970.49254404356
21
3090.42645913641
31
0
0
LINE
8
Základní_vrstva
62
3
10
2970.49254404356
20
3090.42645913641
30
0
11
2970.58634404356
21
3090.64085913641
31
0
0
LINE
8
Základní_vrstva
62
3
10
2970.58634404356
20
3090.64085913641
30
0
11
2970.64664404356
21
3090.83515913641
31
0
0
CIRCLE
8
Základní_vrstva
62
3
10
2969.32674404356
20
3090.72795913641
30
0
40
0.111666666666679
0
LINE
8
Základní_vrstva
62
3
10
2976.59306904356
20
3092.62109663641
30
0
11
2976.51266904356
21
3092.80869663641
31
0
0
LINE
8
Základní_vrstva
62
3
10
2976.51266904356
20
3092.80869663641
30
0
11
2976.37866904356
21
3093.01639663641
31
0
0
LINE
8
Základní_vrstva
62
3
10
2976.37866904356
20
3093.01639663641
30
0
11
2976.31836904356
21
3093.24419663641
31
0
0
LINE
8
Základní_vrstva
62
3
10
2976.31836904356
20
3093.24419663641
30
0
11
2976.22456904356
21
3093.44519663641
31
0
0
LINE
8
Základní_vrstva
62
3
10
2976.22456904356
20
3093.44519663641
30
0
11
2976.01016904356
21
3093.55239663641
31
0
0
LINE
8
Základní_vrstva
62
3
10
2976.01016904356
20
3093.55239663641
30
0
11
2975.78906904356
21
3093.61269663641
31
0
0
LINE
8
Základní_vrstva
62
3
10
2975.78906904356
20
3093.61269663641
30
0
11
2975.60816904356
21
3093.73999663641
31
0
0
LINE
8
Základní_vrstva
62
3
10
2975.60816904356
20
3093.73999663641
30
0
11
2975.40046904356
21
3093.83379663641
31
0
0
LINE
8
Základní_vrstva
62
3
10
2975.40046904356
20
3093.83379663641
30
0
11
2975.17936904356
21
3093.77349663641
31
0
0
LINE
8
Základní_vrstva
62
3
10
2975.17936904356
20
3093.77349663641
30
0
11
2974.98506904356
21
3093.67969663641
31
0
0
LINE
8
Základní_vrstva
62
3
10
2974.98506904356
20
3093.67969663641
30
0
11
2974.75726904356
21
3093.65959663641
31
0
0
LINE
8
Základní_vrstva
62
3
10
2974.75726904356
20
3093.65959663641
30
0
11
2974.52946904356
21
3093.60599663641
31
0
0
LINE
8
Základní_vrstva
62
3
10
2974.52946904356
20
3093.60599663641
30
0
11
2974.38876904356
21
3093.41169663641
31
0
0
LINE
8
Základní_vrstva
62
3
10
2974.38876904356
20
3093.41169663641
30
0
11
2974.28826904356
21
3093.20399663641
31
0
0
LINE
8
Základní_vrstva
62
3
10
2974.28826904356
20
3093.20399663641
30
0
11
2974.13416904356
21
3093.04989663641
31
0
0
LINE
8
Základní_vrstva
62
3
10
2974.13416904356
20
3093.04989663641
30
0
11
2974.00016904356
21
3092.84219663641
31
0
0
LINE
8
Základní_vrstva
62
3
10
2974.00016904356
20
3092.84219663641
30
0
11
2974.02026904356
21
3092.61439663641
31
0
0
LINE
8
Základní_vrstva
62
3
10
2974.02026904356
20
3092.61439663641
30
0
11
2974.08056904356
21
3092.40669663641
31
0
0
LINE
8
Základní_vrstva
62
3
10
2974.08056904356
20
3092.40669663641
30
0
11
2974.05376904356
21
3092.18559663641
31
0
0
LINE
8
Základní_vrstva
62
3
10
2974.05376904356
20
3092.18559663641
30
0
11
2974.07386904356
21
3091.95779663641
31
0
0
LINE
8
Základní_vrstva
62
3
10
2974.07386904356
20
3091.95779663641
30
0
11
2974.24136904356
21
3091.78359663641
31
0
0
LINE
8
Základní_vrstva
62
3
10
2974.24136904356
20
3091.78359663641
30
0
11
2974.43566904356
21
3091.64959663641
31
0
0
LINE
8
Základní_vrstva
62
3
10
2974.43566904356
20
3091.64959663641
30
0
11
2974.56296904356
21
3091.46869663641
31
0
0
LINE
8
Základní_vrstva
62
3
10
2974.56296904356
20
3091.46869663641
30
0
11
2974.71036904356
21
3091.31459663641
31
0
0
LINE
8
Základní_vrstva
62
3
10
2974.71036904356
20
3091.31459663641
30
0
11
2974.93816904356
21
3091.29449663641
31
0
0
LINE
8
Základní_vrstva
62
3
10
2974.93816904356
20
3091.29449663641
30
0
11
2975.17266904356
21
3091.31459663641
31
0
0
LINE
8
Základní_vrstva
62
3
10
2975.17266904356
20
3091.31459663641
30
0
11
2975.38706904356
21
3091.25429663641
31
0
0
LINE
8
Základní_vrstva
62
3
10
2975.38706904356
20
3091.25429663641
30
0
11
2975.62156904356
21
3091.23419663641
31
0
0
LINE
8
Základní_vrstva
62
3
10
2975.62156904356
20
3091.23419663641
30
0
11
2975.80916904356
21
3091.36149663641
31
0
0
LINE
8
Základní_vrstva
62
3
10
2975.80916904356
20
3091.36149663641
30
0
11
2975.96326904356
21
3091.52229663641
31
0
0
LINE
8
Základní_vrstva
62
3
10
2975.96326904356
20
3091.52229663641
30
0
11
2976.17096904356
21
3091.61609663641
31
0
0
LINE
8
Základní_vrstva
62
3
10
2976.17096904356
20
3091.61609663641
30
0
11
2976.36526904356
21
3091.75679663641
31
0
0
LINE
8
Základní_vrstva
62
3
10
2976.36526904356
20
3091.75679663641
30
0
11
2976.43226904356
21
3091.98459663641
31
0
0
LINE
8
Základní_vrstva
62
3
10
2976.43226904356
20
3091.98459663641
30
0
11
2976.44566904356
21
3092.21239663641
31
0
0
LINE
8
Základní_vrstva
62
3
10
2976.44566904356
20
3092.21239663641
30
0
11
2976.53946904356
21
3092.42679663641
31
0
0
LINE
8
Základní_vrstva
62
3
10
2976.53946904356
20
3092.42679663641
30
0
11
2976.59976904356
21
3092.62109663641
31
0
0
CIRCLE
8
Základní_vrstva
62
3
10
2975.27986904356
20
3092.51389663641
30
0
40
0.111666666666679
0
LINE
8
Základní_vrstva
62
3
10
2981.75244404356
20
3093.81172163641
30
0
11
2981.67204404356
21
3093.99932163641
31
0
0
LINE
8
Základní_vrstva
62
3
10
2981.67204404356
20
3093.99932163641
30
0
11
2981.53804404356
21
3094.20702163641
31
0
0
LINE
8
Základní_vrstva
62
3
10
2981.53804404356
20
3094.20702163641
30
0
11
2981.47774404356
21
3094.43482163641
31
0
0
LINE
8
Základní_vrstva
62
3
10
2981.47774404356
20
3094.43482163641
30
0
11
2981.38394404356
21
3094.63582163641
31
0
0
LINE
8
Základní_vrstva
62
3
10
2981.38394404356
20
3094.63582163641
30
0
11
2981.16954404356
21
3094.74302163641
31
0
0
LINE
8
Základní_vrstva
62
3
10
2981.16954404356
20
3094.74302163641
30
0
11
2980.94844404356
21
3094.80332163641
31
0
0
LINE
8
Základní_vrstva
62
3
10
2980.94844404356
20
3094.80332163641
30
0
11
2980.76754404356
21
3094.93062163641
31
0
0
LINE
8
Základní_vrstva
62
3
10
2980.76754404356
20
3094.93062163641
30
0
11
2980.55984404356
21
3095.02442163641
31
0
0
LINE
8
Základní_vrstva
62
3
10
2980.55984404356
20
3095.02442163641
30
0
11
2980.33874404356
21
3094.96412163641
31
0
0
LINE
8
Základní_vrstva
62
3
10
2980.33874404356
20
3094.96412163641
30
0
11
2980.14444404356
21
3094.87032163641
31
0
0
LINE
8
Základní_vrstva
62
3
10
2980.14444404356
20
3094.87032163641
30
0
11
2979.91664404356
21
3094.85022163641
31
0
0
LINE
8
Základní_vrstva
62
3
10
2979.91664404356
20
3094.85022163641
30
0
11
2979.68884404356
21
3094.79662163641
31
0
0
LINE
8
Základní_vrstva
62
3
10
2979.68884404356
20
3094.79662163641
30
0
11
2979.54814404356
21
3094.60232163641
31
0
0
LINE
8
Základní_vrstva
62
3
10
2979.54814404356
20
3094.60232163641
30
0
11
2979.44764404356
21
3094.39462163641
31
0
0
LINE
8
Základní_vrstva
62
3
10
2979.44764404356
20
3094.39462163641
30
0
11
2979.29354404356
21
3094.24052163641
31
0
0
LINE
8
Základní_vrstva
62
3
10
2979.29354404356
20
3094.24052163641
30
0
11
2979.15954404356
21
3094.03282163641
31
0
0
LINE
8
Základní_vrstva
62
3
10
2979.15954404356
20
3094.03282163641
30
0
11
2979.17964404356
21
3093.80502163641
31
0
0
LINE
8
Základní_vrstva
62
3
10
2979.17964404356
20
3093.80502163641
30
0
11
2979.23994404356
21
3093.59732163641
31
0
0
LINE
8
Základní_vrstva
62
3
10
2979.23994404356
20
3093.59732163641
30
0
11
2979.21314404356
21
3093.37622163641
31
0
0
LINE
8
Základní_vrstva
62
3
10
2979.21314404356
20
3093.37622163641
30
0
11
2979.23324404356
21
3093.14842163641
31
0
0
LINE
8
Základní_vrstva
62
3
10
2979.23324404356
20
3093.14842163641
30
0
11
2979.40074404356
21
3092.97422163641
31
0
0
LINE
8
Základní_vrstva
62
3
10
2979.40074404356
20
3092.97422163641
30
0
11
2979.59504404356
21
3092.84022163641
31
0
0
LINE
8
Základní_vrstva
62
3
10
2979.59504404356
20
3092.84022163641
30
0
11
2979.72234404356
21
3092.65932163641
31
0
0
LINE
8
Základní_vrstva
62
3
10
2979.72234404356
20
3092.65932163641
30
0
11
2979.86974404356
21
3092.50522163641
31
0
0
LINE
8
Základní_vrstva
62
3
10
2979.86974404356
20
3092.50522163641
30
0
11
2980.09754404356
21
3092.48512163641
31
0
0
LINE
8
Základní_vrstva
62
3
10
2980.09754404356
20
3092.48512163641
30
0
11
2980.33204404356
21
3092.50522163641
31
0
0
LINE
8
Základní_vrstva
62
3
10
2980.33204404356
20
3092.50522163641
30
0
11
2980.54644404356
21
3092.44492163641
31
0
0
LINE
8
Základní_vrstva
62
3
10
2980.54644404356
20
3092.44492163641
30
0
11
2980.78094404356
21
3092.42482163641
31
0
0
LINE
8
Základní_vrstva
62
3
10
2980.78094404356
20
3092.42482163641
30
0
11
2980.96854404356
21
3092.55212163641
31
0
0
LINE
8
Základní_vrstva
62
3
10
2980.96854404356
20
3092.55212163641
30
0
11
2981.12264404356
21
3092.71292163641
31
0
0
LINE
8
Základní_vrstva
62
3
10
2981.12264404356
20
3092.71292163641
30
0
11
2981.33034404356
21
3092.80672163641
31
0
0
LINE
8
Základní_vrstva
62
3
10
2981.33034404356
20
3092.80672163641
30
0
11
2981.52464404356
21
3092.94742163641
31
0
0
LINE
8
Základní_vrstva
62
3
10
2981.52464404356
20
3092.94742163641
30
0
11
2981.59164404356
21
3093.17522163641
31
0
0
LINE
8
Základní_vrstva
62
3
10
2981.59164404356
20
3093.17522163641
30
0
11
2981.60504404356
21
3093.40302163641
31
0
0
LINE
8
Základní_vrstva
62
3
10
2981.60504404356
20
3093.40302163641
30
0
11
2981.69884404356
21
3093.61742163641
31
0
0
LINE
8
Základní_vrstva
62
3
10
2981.69884404356
20
3093.61742163641
30
0
11
2981.75914404356
21
3093.81172163641
31
0
0
CIRCLE
8
Základní_vrstva
62
3
10
2980.43924404356
20
3093.70452163641
30
0
40
0.111666666666679
0
LINE
8
Základní_vrstva
62
3
10
2987.70556904356
20
3095.10156538641
30
0
11
2987.62516904356
21
3095.28916538641
31
0
0
LINE
8
Základní_vrstva
62
3
10
2987.62516904356
20
3095.28916538641
30
0
11
2987.49116904356
21
3095.49686538641
31
0
0
LINE
8
Základní_vrstva
62
3
10
2987.49116904356
20
3095.49686538641
30
0
11
2987.43086904356
21
3095.72466538641
31
0
0
LINE
8
Základní_vrstva
62
3
10
2987.43086904356
20
3095.72466538641
30
0
11
2987.33706904356
21
3095.92566538641
31
0
0
LINE
8
Základní_vrstva
62
3
10
2987.33706904356
20
3095.92566538641
30
0
11
2987.12266904356
21
3096.03286538641
31
0
0
LINE
8
Základní_vrstva
62
3
10
2987.12266904356
20
3096.03286538641
30
0
11
2986.90156904356
21
3096.09316538641
31
0
0
LINE
8
Základní_vrstva
62
3
10
2986.90156904356
20
3096.09316538641
30
0
11
2986.72066904356
21
3096.22046538641
31
0
0
LINE
8
Základní_vrstva
62
3
10
2986.72066904356
20
3096.22046538641
30
0
11
2986.51296904356
21
3096.31426538641
31
0
0
LINE
8
Základní_vrstva
62
3
10
2986.51296904356
20
3096.31426538641
30
0
11
2986.29186904356
21
3096.25396538641
31
0
0
LINE
8
Základní_vrstva
62
3
10
2986.29186904356
20
3096.25396538641
30
0
11
2986.09756904356
21
3096.16016538641
31
0
0
LINE
8
Základní_vrstva
62
3
10
2986.09756904356
20
3096.16016538641
30
0
11
2985.86976904356
21
3096.14006538641
31
0
0
LINE
8
Základní_vrstva
62
3
10
2985.86976904356
20
3096.14006538641
30
0
11
2985.64196904356
21
3096.08646538641
31
0
0
LINE
8
Základní_vrstva
62
3
10
2985.64196904356
20
3096.08646538641
30
0
11
2985.50126904356
21
3095.89216538641
31
0
0
LINE
8
Základní_vrstva
62
3
10
2985.50126904356
20
3095.89216538641
30
0
11
2985.40076904356
21
3095.68446538641
31
0
0
LINE
8
Základní_vrstva
62
3
10
2985.40076904356
20
3095.68446538641
30
0
11
2985.24666904356
21
3095.53036538641
31
0
0
LINE
8
Základní_vrstva
62
3
10
2985.24666904356
20
3095.53036538641
30
0
11
2985.11266904356
21
3095.32266538641
31
0
0
LINE
8
Základní_vrstva
62
3
10
2985.11266904356
20
3095.32266538641
30
0
11
2985.13276904356
21
3095.09486538641
31
0
0
LINE
8
Základní_vrstva
62
3
10
2985.13276904356
20
3095.09486538641
30
0
11
2985.19306904356
21
3094.88716538641
31
0
0
LINE
8
Základní_vrstva
62
3
10
2985.19306904356
20
3094.88716538641
30
0
11
2985.16626904356
21
3094.66606538641
31
0
0
LINE
8
Základní_vrstva
62
3
10
2985.16626904356
20
3094.66606538641
30
0
11
2985.18636904356
21
3094.43826538641
31
0
0
LINE
8
Základní_vrstva
62
3
10
2985.18636904356
20
3094.43826538641
30
0
11
2985.35386904356
21
3094.26406538641
31
0
0
LINE
8
Základní_vrstva
62
3
10
2985.35386904356
20
3094.26406538641
30
0
11
2985.54816904356
21
3094.13006538641
31
0
0
LINE
8
Základní_vrstva
62
3
10
2985.54816904356
20
3094.13006538641
30
0
11
2985.67546904356
21
3093.94916538641
31
0
0
LINE
8
Základní_vrstva
62
3
10
2985.67546904356
20
3093.94916538641
30
0
11
2985.82286904356
21
3093.79506538641
31
0
0
LINE
8
Základní_vrstva
62
3
10
2985.82286904356
20
3093.79506538641
30
0
11
2986.05066904356
21
3093.77496538641
31
0
0
LINE
8
Základní_vrstva
62
3
10
2986.05066904356
20
3093.77496538641
30
0
11
2986.28516904356
21
3093.79506538641
31
0
0
LINE
8
Základní_vrstva
62
3
10
2986.28516904356
20
3093.79506538641
30
0
11
2986.49956904356
21
3093.73476538641
31
0
0
LINE
8
Základní_vrstva
62
3
10
2986.49956904356
20
3093.73476538641
30
0
11
2986.73406904356
21
3093.71466538641
31
0
0
LINE
8
Základní_vrstva
62
3
10
2986.73406904356
20
3093.71466538641
30
0
11
2986.92166904356
21
3093.84196538641
31
0
0
LINE
8
Základní_vrstva
62
3
10
2986.92166904356
20
3093.84196538641
30
0
11
2987.07576904356
21
3094.00276538641
31
0
0
LINE
8
Základní_vrstva
62
3
10
2987.07576904356
20
3094.00276538641
30
0
11
2987.28346904356
21
3094.09656538641
31
0
0
LINE
8
Základní_vrstva
62
3
10
2987.28346904356
20
3094.09656538641
30
0
11
2987.47776904356
21
3094.23726538641
31
0
0
LINE
8
Základní_vrstva
62
3
10
2987.47776904356
20
3094.23726538641
30
0
11
2987.54476904356
21
3094.46506538641
31
0
0
LINE
8
Základní_vrstva
62
3
10
2987.54476904356
20
3094.46506538641
30
0
11
2987.55816904356
21
3094.69286538641
31
0
0
LINE
8
Základní_vrstva
62
3
10
2987.55816904356
20
3094.69286538641
30
0
11
2987.65196904356
21
3094.90726538641
31
0
0
LINE
8
Základní_vrstva
62
3
10
2987.65196904356
20
3094.90726538641
30
0
11
2987.71226904356
21
3095.10156538641
31
0
0
CIRCLE
8
Základní_vrstva
62
3
10
2986.39236904356
20
3094.99436538641
30
0
40
0.111666666666679
0
LINE
8
Základní_vrstva
62
3
10
2993.16260029356
20
3096.39140913641
30
0
11
2993.08220029356
21
3096.57900913641
31
0
0
LINE
8
Základní_vrstva
62
3
10
2993.08220029356
20
3096.57900913641
30
0
11
2992.94820029356
21
3096.78670913641
31
0
0
LINE
8
Základní_vrstva
62
3
10
2992.94820029356
20
3096.78670913641
30
0
11
2992.88790029356
21
3097.01450913641
31
0
0
LINE
8
Základní_vrstva
62
3
10
2992.88790029356
20
3097.01450913641
30
0
11
2992.79410029356
21
3097.21550913641
31
0
0
LINE
8
Základní_vrstva
62
3
10
2992.79410029356
20
3097.21550913641
30
0
11
2992.57970029356
21
3097.32270913641
31
0
0
LINE
8
Základní_vrstva
62
3
10
2992.57970029356
20
3097.32270913641
30
0
11
2992.35860029356
21
3097.38300913641
31
0
0
LINE
8
Základní_vrstva
62
3
10
2992.35860029356
20
3097.38300913641
30
0
11
2992.17770029356
21
3097.51030913641
31
0
0
LINE
8
Základní_vrstva
62
3
10
2992.17770029356
20
3097.51030913641
30
0
11
2991.97000029356
21
3097.60410913641
31
0
0
LINE
8
Základní_vrstva
62
3
10
2991.97000029356
20
3097.60410913641
30
0
11
2991.74890029356
21
3097.54380913641
31
0
0
LINE
8
Základní_vrstva
62
3
10
2991.74890029356
20
3097.54380913641
30
0
11
2991.55460029356
21
3097.45000913641
31
0
0
LINE
8
Základní_vrstva
62
3
10
2991.55460029356
20
3097.45000913641
30
0
11
2991.32680029356
21
3097.42990913641
31
0
0
LINE
8
Základní_vrstva
62
3
10
2991.32680029356
20
3097.42990913641
30
0
11
2991.09900029356
21
3097.37630913641
31
0
0
LINE
8
Základní_vrstva
62
3
10
2991.09900029356
20
3097.37630913641
30
0
11
2990.95830029356
21
3097.18200913641
31
0
0
LINE
8
Základní_vrstva
62
3
10
2990.95830029356
20
3097.18200913641
30
0
11
2990.85780029356
21
3096.97430913641
31
0
0
LINE
8
Základní_vrstva
62
3
10
2990.85780029356
20
3096.97430913641
30
0
11
2990.70370029356
21
3096.82020913641
31
0
0
LINE
8
Základní_vrstva
62
3
10
2990.70370029356
20
3096.82020913641
30
0
11
2990.56970029356
21
3096.61250913641
31
0
0
LINE
8
Základní_vrstva
62
3
10
2990.56970029356
20
3096.61250913641
30
0
11
2990.58980029356
21
3096.38470913641
31
0
0
LINE
8
Základní_vrstva
62
3
10
2990.58980029356
20
3096.38470913641
30
0
11
2990.65010029356
21
3096.17700913641
31
0
0
LINE
8
Základní_vrstva
62
3
10
2990.65010029356
20
3096.17700913641
30
0
11
2990.62330029356
21
3095.95590913641
31
0
0
LINE
8
Základní_vrstva
62
3
10
2990.62330029356
20
3095.95590913641
30
0
11
2990.64340029356
21
3095.72810913641
31
0
0
LINE
8
Základní_vrstva
62
3
10
2990.64340029356
20
3095.72810913641
30
0
11
2990.81090029356
21
3095.55390913641
31
0
0
LINE
8
Základní_vrstva
62
3
10
2990.81090029356
20
3095.55390913641
30
0
11
2991.00520029356
21
3095.41990913641
31
0
0
LINE
8
Základní_vrstva
62
3
10
2991.00520029356
20
3095.41990913641
30
0
11
2991.13250029356
21
3095.23900913641
31
0
0
LINE
8
Základní_vrstva
62
3
10
2991.13250029356
20
3095.23900913641
30
0
11
2991.27990029356
21
3095.08490913641
31
0
0
LINE
8
Základní_vrstva
62
3
10
2991.27990029356
20
3095.08490913641
30
0
11
2991.50770029356
21
3095.06480913641
31
0
0
LINE
8
Základní_vrstva
62
3
10
2991.50770029356
20
3095.06480913641
30
0
11
2991.74220029356
21
3095.08490913641
31
0
0
LINE
8
Základní_vrstva
62
3
10
2991.74220029356
20
3095.08490913641
30
0
11
2991.95660029356
21
3095.02460913641
31
0
0
LINE
8
Základní_vrstva
62
3
10
2991.95660029356
20
3095.02460913641
30
0
11
2992.19110029356
21
3095.00450913641
31
0
0
LINE
8
Základní_vrstva
62
3
10
2992.19110029356
20
3095.00450913641
30
0
11
2992.37870029356
21
3095.13180913641
31
0
0
LINE
8
Základní_vrstva
62
3
10
2992.37870029356
20
3095.13180913641
30
0
11
2992.53280029356
21
3095.29260913641
31
0
0
LINE
8
Základní_vrstva
62
3
10
2992.53280029356
20
3095.29260913641
30
0
11
2992.74050029356
21
3095.38640913641
31
0
0
LINE
8
Základní_vrstva
62
3
10
2992.74050029356
20
3095.38640913641
30
0
11
2992.93480029356
21
3095.52710913641
31
0
0
LINE
8
Základní_vrstva
62
3
10
2992.93480029356
20
3095.52710913641
30
0
11
2993.00180029356
21
3095.75490913641
31
0
0
LINE
8
Základní_vrstva
62
3
10
2993.00180029356
20
3095.75490913641
30
0
11
2993.01520029356
21
3095.98270913641
31
0
0
LINE
8
Základní_vrstva
62
3
10
2993.01520029356
20
3095.98270913641
30
0
11
2993.10900029356
21
3096.19710913641
31
0
0
LINE
8
Základní_vrstva
62
3
10
2993.10900029356
20
3096.19710913641
30
0
11
2993.16930029356
21
3096.39140913641
31
0
0
CIRCLE
8
Základní_vrstva
62
3
10
2991.84940029356
20
3096.28420913641
30
0
40
0.111666666666679
0
LINE
8
Základní_vrstva
62
3
10
2998.52041279356
20
3097.58203413641
30
0
11
2998.44001279356
21
3097.76963413641
31
0
0
LINE
8
Základní_vrstva
62
3
10
2998.44001279356
20
3097.76963413641
30
0
11
2998.30601279356
21
3097.97733413641
31
0
0
LINE
8
Základní_vrstva
62
3
10
2998.30601279356
20
3097.97733413641
30
0
11
2998.24571279356
21
3098.20513413641
31
0
0
LINE
8
Základní_vrstva
62
3
10
2998.24571279356
20
3098.20513413641
30
0
11
2998.15191279356
21
3098.40613413641
31
0
0
LINE
8
Základní_vrstva
62
3
10
2998.15191279356
20
3098.40613413641
30
0
11
2997.93751279356
21
3098.51333413641
31
0
0
LINE
8
Základní_vrstva
62
3
10
2997.93751279356
20
3098.51333413641
30
0
11
2997.71641279356
21
3098.57363413641
31
0
0
LINE
8
Základní_vrstva
62
3
10
2997.71641279356
20
3098.57363413641
30
0
11
2997.53551279356
21
3098.70093413641
31
0
0
LINE
8
Základní_vrstva
62
3
10
2997.53551279356
20
3098.70093413641
30
0
11
2997.32781279356
21
3098.79473413641
31
0
0
LINE
8
Základní_vrstva
62
3
10
2997.32781279356
20
3098.79473413641
30
0
11
2997.10671279356
21
3098.73443413641
31
0
0
LINE
8
Základní_vrstva
62
3
10
2997.10671279356
20
3098.73443413641
30
0
11
2996.91241279356
21
3098.64063413641
31
0
0
LINE
8
Základní_vrstva
62
3
10
2996.91241279356
20
3098.64063413641
30
0
11
2996.68461279356
21
3098.62053413641
31
0
0
LINE
8
Základní_vrstva
62
3
10
2996.68461279356
20
3098.62053413641
30
0
11
2996.45681279356
21
3098.56693413641
31
0
0
LINE
8
Základní_vrstva
62
3
10
2996.45681279356
20
3098.56693413641
30
0
11
2996.31611279356
21
3098.37263413641
31
0
0
LINE
8
Základní_vrstva
62
3
10
2996.31611279356
20
3098.37263413641
30
0
11
2996.21561279356
21
3098.16493413641
31
0
0
LINE
8
Základní_vrstva
62
3
10
2996.21561279356
20
3098.16493413641
30
0
11
2996.06151279356
21
3098.01083413641
31
0
0
LINE
8
Základní_vrstva
62
3
10
2996.06151279356
20
3098.01083413641
30
0
11
2995.92751279356
21
3097.80313413641
31
0
0
LINE
8
Základní_vrstva
62
3
10
2995.92751279356
20
3097.80313413641
30
0
11
2995.94761279356
21
3097.57533413641
31
0
0
LINE
8
Základní_vrstva
62
3
10
2995.94761279356
20
3097.57533413641
30
0
11
2996.00791279356
21
3097.36763413641
31
0
0
LINE
8
Základní_vrstva
62
3
10
2996.00791279356
20
3097.36763413641
30
0
11
2995.98111279356
21
3097.14653413641
31
0
0
LINE
8
Základní_vrstva
62
3
10
2995.98111279356
20
3097.14653413641
30
0
11
2996.00121279356
21
3096.91873413641
31
0
0
LINE
8
Základní_vrstva
62
3
10
2996.00121279356
20
3096.91873413641
30
0
11
2996.16871279356
21
3096.74453413641
31
0
0
LINE
8
Základní_vrstva
62
3
10
2996.16871279356
20
3096.74453413641
30
0
11
2996.36301279356
21
3096.61053413641
31
0
0
LINE
8
Základní_vrstva
62
3
10
2996.36301279356
20
3096.61053413641
30
0
11
2996.49031279356
21
3096.42963413641
31
0
0
LINE
8
Základní_vrstva
62
3
10
2996.49031279356
20
3096.42963413641
30
0
11
2996.63771279356
21
3096.27553413641
31
0
0
LINE
8
Základní_vrstva
62
3
10
2996.63771279356
20
3096.27553413641
30
0
11
2996.86551279356
21
3096.25543413641
31
0
0
LINE
8
Základní_vrstva
62
3
10
2996.86551279356
20
3096.25543413641
30
0
11
2997.10001279356
21
3096.27553413641
31
0
0
LINE
8
Základní_vrstva
62
3
10
2997.10001279356
20
3096.27553413641
30
0
11
2997.31441279356
21
3096.21523413641
31
0
0
LINE
8
Základní_vrstva
62
3
10
2997.31441279356
20
3096.21523413641
30
0
11
2997.54891279356
21
3096.19513413641
31
0
0
LINE
8
Základní_vrstva
62
3
10
2997.54891279356
20
3096.19513413641
30
0
11
2997.73651279356
21
3096.32243413641
31
0
0
LINE
8
Základní_vrstva
62
3
10
2997.73651279356
20
3096.32243413641
30
0
11
2997.89061279356
21
3096.48323413641
31
0
0
LINE
8
Základní_vrstva
62
3
10
2997.89061279356
20
3096.48323413641
30
0
11
2998.09831279356
21
3096.57703413641
31
0
0
LINE
8
Základní_vrstva
62
3
10
2998.09831279356
20
3096.57703413641
30
0
11
2998.29261279356
21
3096.71773413641
31
0
0
LINE
8
Základní_vrstva
62
3
10
2998.29261279356
20
3096.71773413641
30
0
11
2998.35961279356
21
3096.94553413641
31
0
0
LINE
8
Základní_vrstva
62
3
10
2998.35961279356
20
3096.94553413641
30
0
11
2998.37301279356
21
3097.17333413641
31
0
0
LINE
8
Základní_vrstva
62
3
10
2998.37301279356
20
3097.17333413641
30
0
11
2998.46681279356
21
3097.38773413641
31
0
0
LINE
8
Základní_vrstva
62
3
10
2998.46681279356
20
3097.38773413641
30
0
11
2998.52711279356
21
3097.58203413641
31
0
0
CIRCLE
8
Základní_vrstva
62
3
10
2997.20721279356
20
3097.47483413641
30
0
40
0.111666666666679
0
LINE
8
Základní_vrstva
62
3
10
3003.58056904356
20
3099.07031538641
30
0
11
3003.50016904356
21
3099.25791538641
31
0
0
LINE
8
Základní_vrstva
62
3
10
3003.50016904356
20
3099.25791538641
30
0
11
3003.36616904356
21
3099.46561538641
31
0
0
LINE
8
Základní_vrstva
62
3
10
3003.36616904356
20
3099.46561538641
30
0
11
3003.30586904356
21
3099.69341538641
31
0
0
LINE
8
Základní_vrstva
62
3
10
3003.30586904356
20
3099.69341538641
30
0
11
3003.21206904356
21
3099.89441538641
31
0
0
LINE
8
Základní_vrstva
62
3
10
3003.21206904356
20
3099.89441538641
30
0
11
3002.99766904356
21
3100.00161538641
31
0
0
LINE
8
Základní_vrstva
62
3
10
3002.99766904356
20
3100.00161538641
30
0
11
3002.77656904356
21
3100.06191538641
31
0
0
LINE
8
Základní_vrstva
62
3
10
3002.77656904356
20
3100.06191538641
30
0
11
3002.59566904356
21
3100.18921538641
31
0
0
LINE
8
Základní_vrstva
62
3
10
3002.59566904356
20
3100.18921538641
30
0
11
3002.38796904356
21
3100.28301538641
31
0
0
LINE
8
Základní_vrstva
62
3
10
3002.38796904356
20
3100.28301538641
30
0
11
3002.16686904356
21
3100.22271538641
31
0
0
LINE
8
Základní_vrstva
62
3
10
3002.16686904356
20
3100.22271538641
30
0
11
3001.97256904356
21
3100.12891538641
31
0
0
LINE
8
Základní_vrstva
62
3
10
3001.97256904356
20
3100.12891538641
30
0
11
3001.74476904356
21
3100.10881538641
31
0
0
LINE
8
Základní_vrstva
62
3
10
3001.74476904356
20
3100.10881538641
30
0
11
3001.51696904356
21
3100.05521538641
31
0
0
LINE
8
Základní_vrstva
62
3
10
3001.51696904356
20
3100.05521538641
30
0
11
3001.37626904356
21
3099.86091538641
31
0
0
LINE
8
Základní_vrstva
62
3
10
3001.37626904356
20
3099.86091538641
30
0
11
3001.27576904356
21
3099.65321538641
31
0
0
LINE
8
Základní_vrstva
62
3
10
3001.27576904356
20
3099.65321538641
30
0
11
3001.12166904356
21
3099.49911538641
31
0
0
LINE
8
Základní_vrstva
62
3
10
3001.12166904356
20
3099.49911538641
30
0
11
3000.98766904356
21
3099.29141538641
31
0
0
LINE
8
Základní_vrstva
62
3
10
3000.98766904356
20
3099.29141538641
30
0
11
3001.00776904356
21
3099.06361538641
31
0
0
LINE
8
Základní_vrstva
62
3
10
3001.00776904356
20
3099.06361538641
30
0
11
3001.06806904356
21
3098.85591538641
31
0
0
LINE
8
Základní_vrstva
62
3
10
3001.06806904356
20
3098.85591538641
30
0
11
3001.04126904356
21
3098.63481538641
31
0
0
LINE
8
Základní_vrstva
62
3
10
3001.04126904356
20
3098.63481538641
30
0
11
3001.06136904356
21
3098.40701538641
31
0
0
LINE
8
Základní_vrstva
62
3
10
3001.06136904356
20
3098.40701538641
30
0
11
3001.22886904356
21
3098.23281538641
31
0
0
LINE
8
Základní_vrstva
62
3
10
3001.22886904356
20
3098.23281538641
30
0
11
3001.42316904356
21
3098.09881538641
31
0
0
LINE
8
Základní_vrstva
62
3
10
3001.42316904356
20
3098.09881538641
30
0
11
3001.55046904356
21
3097.91791538641
31
0
0
LINE
8
Základní_vrstva
62
3
10
3001.55046904356
20
3097.91791538641
30
0
11
3001.69786904356
21
3097.76381538641
31
0
0
LINE
8
Základní_vrstva
62
3
10
3001.69786904356
20
3097.76381538641
30
0
11
3001.92566904356
21
3097.74371538641
31
0
0
LINE
8
Základní_vrstva
62
3
10
3001.92566904356
20
3097.74371538641
30
0
11
3002.16016904356
21
3097.76381538641
31
0
0
LINE
8
Základní_vrstva
62
3
10
3002.16016904356
20
3097.76381538641
30
0
11
3002.37456904356
21
3097.70351538641
31
0
0
LINE
8
Základní_vrstva
62
3
10
3002.37456904356
20
3097.70351538641
30
0
11
3002.60906904356
21
3097.68341538641
31
0
0
LINE
8
Základní_vrstva
62
3
10
3002.60906904356
20
3097.68341538641
30
0
11
3002.79666904356
21
3097.81071538641
31
0
0
LINE
8
Základní_vrstva
62
3
10
3002.79666904356
20
3097.81071538641
30
0
11
3002.95076904356
21
3097.97151538641
31
0
0
LINE
8
Základní_vrstva
62
3
10
3002.95076904356
20
3097.97151538641
30
0
11
3003.15846904356
21
3098.06531538641
31
0
0
LINE
8
Základní_vrstva
62
3
10
3003.15846904356
20
3098.06531538641
30
0
11
3003.35276904356
21
3098.20601538641
31
0
0
LINE
8
Základní_vrstva
62
3
10
3003.35276904356
20
3098.20601538641
30
0
11
3003.41976904356
21
3098.43381538641
31
0
0
LINE
8
Základní_vrstva
62
3
10
3003.41976904356
20
3098.43381538641
30
0
11
3003.43316904356
21
3098.66161538641
31
0
0
LINE
8
Základní_vrstva
62
3
10
3003.43316904356
20
3098.66161538641
30
0
11
3003.52696904356
21
3098.87601538641
31
0
0
LINE
8
Základní_vrstva
62
3
10
3003.52696904356
20
3098.87601538641
30
0
11
3003.58726904356
21
3099.07031538641
31
0
0
CIRCLE
8
Základní_vrstva
62
3
10
3002.26736904356
20
3098.96311538641
30
0
40
0.111666666666679
0
LINE
8
Základní_vrstva
62
3
10
3009.23603779356
20
3100.16172163641
30
0
11
3009.15563779356
21
3100.34932163641
31
0
0
LINE
8
Základní_vrstva
62
3
10
3009.15563779356
20
3100.34932163641
30
0
11
3009.02163779356
21
3100.55702163641
31
0
0
LINE
8
Základní_vrstva
62
3
10
3009.02163779356
20
3100.55702163641
30
0
11
3008.96133779356
21
3100.78482163641
31
0
0
LINE
8
Základní_vrstva
62
3
10
3008.96133779356
20
3100.78482163641
30
0
11
3008.86753779356
21
3100.98582163641
31
0
0
LINE
8
Základní_vrstva
62
3
10
3008.86753779356
20
3100.98582163641
30
0
11
3008.65313779356
21
3101.09302163641
31
0
0
LINE
8
Základní_vrstva
62
3
10
3008.65313779356
20
3101.09302163641
30
0
11
3008.43203779356
21
3101.15332163641
31
0
0
LINE
8
Základní_vrstva
62
3
10
3008.43203779356
20
3101.15332163641
30
0
11
3008.25113779356
21
3101.28062163641
31
0
0
LINE
8
Základní_vrstva
62
3
10
3008.25113779356
20
3101.28062163641
30
0
11
3008.04343779356
21
3101.37442163641
31
0
0
LINE
8
Základní_vrstva
62
3
10
3008.04343779356
20
3101.37442163641
30
0
11
3007.82233779356
21
3101.31412163641
31
0
0
LINE
8
Základní_vrstva
62
3
10
3007.82233779356
20
3101.31412163641
30
0
11
3007.62803779356
21
3101.22032163641
31
0
0
LINE
8
Základní_vrstva
62
3
10
3007.62803779356
20
3101.22032163641
30
0
11
3007.40023779356
21
3101.20022163641
31
0
0
LINE
8
Základní_vrstva
62
3
10
3007.40023779356
20
3101.20022163641
30
0
11
3007.17243779356
21
3101.14662163641
31
0
0
LINE
8
Základní_vrstva
62
3
10
3007.17243779356
20
3101.14662163641
30
0
11
3007.03173779356
21
3100.95232163641
31
0
0
LINE
8
Základní_vrstva
62
3
10
3007.03173779356
20
3100.95232163641
30
0
11
3006.93123779356
21
3100.74462163641
31
0
0
LINE
8
Základní_vrstva
62
3
10
3006.93123779356
20
3100.74462163641
30
0
11
3006.77713779356
21
3100.59052163641
31
0
0
LINE
8
Základní_vrstva
62
3
10
3006.77713779356
20
3100.59052163641
30
0
11
3006.64313779356
21
3100.38282163641
31
0
0
LINE
8
Základní_vrstva
62
3
10
3006.64313779356
20
3100.38282163641
30
0
11
3006.66323779356
21
3100.15502163641
31
0
0
LINE
8
Základní_vrstva
62
3
10
3006.66323779356
20
3100.15502163641
30
0
11
3006.72353779356
21
3099.94732163641
31
0
0
LINE
8
Základní_vrstva
62
3
10
3006.72353779356
20
3099.94732163641
30
0
11
3006.69673779356
21
3099.72622163641
31
0
0
LINE
8
Základní_vrstva
62
3
10
3006.69673779356
20
3099.72622163641
30
0
11
3006.71683779356
21
3099.49842163641
31
0
0
LINE
8
Základní_vrstva
62
3
10
3006.71683779356
20
3099.49842163641
30
0
11
3006.88433779356
21
3099.32422163641
31
0
0
LINE
8
Základní_vrstva
62
3
10
3006.88433779356
20
3099.32422163641
30
0
11
3007.07863779356
21
3099.19022163641
31
0
0
LINE
8
Základní_vrstva
62
3
10
3007.07863779356
20
3099.19022163641
30
0
11
3007.20593779356
21
3099.00932163641
31
0
0
LINE
8
Základní_vrstva
62
3
10
3007.20593779356
20
3099.00932163641
30
0
11
3007.35333779356
21
3098.85522163641
31
0
0
LINE
8
Základní_vrstva
62
3
10
3007.35333779356
20
3098.85522163641
30
0
11
3007.58113779356
21
3098.83512163641
31
0
0
LINE
8
Základní_vrstva
62
3
10
3007.58113779356
20
3098.83512163641
30
0
11
3007.81563779356
21
3098.85522163641
31
0
0
LINE
8
Základní_vrstva
62
3
10
3007.81563779356
20
3098.85522163641
30
0
11
3008.03003779356
21
3098.79492163641
31
0
0
LINE
8
Základní_vrstva
62
3
10
3008.03003779356
20
3098.79492163641
30
0
11
3008.26453779356
21
3098.77482163641
31
0
0
LINE
8
Základní_vrstva
62
3
10
3008.26453779356
20
3098.77482163641
30
0
11
3008.45213779356
21
3098.90212163641
31
0
0
LINE
8
Základní_vrstva
62
3
10
3008.45213779356
20
3098.90212163641
30
0
11
3008.60623779356
21
3099.06292163641
31
0
0
LINE
8
Základní_vrstva
62
3
10
3008.60623779356
20
3099.06292163641
30
0
11
3008.81393779356
21
3099.15672163641
31
0
0
LINE
8
Základní_vrstva
62
3
10
3008.81393779356
20
3099.15672163641
30
0
11
3009.00823779356
21
3099.29742163641
31
0
0
LINE
8
Základní_vrstva
62
3
10
3009.00823779356
20
3099.29742163641
30
0
11
3009.07523779356
21
3099.52522163641
31
0
0
LINE
8
Základní_vrstva
62
3
10
3009.07523779356
20
3099.52522163641
30
0
11
3009.08863779356
21
3099.75302163641
31
0
0
LINE
8
Základní_vrstva
62
3
10
3009.08863779356
20
3099.75302163641
30
0
11
3009.18243779356
21
3099.96742163641
31
0
0
LINE
8
Základní_vrstva
62
3
10
3009.18243779356
20
3099.96742163641
30
0
11
3009.24273779356
21
3100.16172163641
31
0
0
CIRCLE
8
Základní_vrstva
62
3
10
3007.92283779356
20
3100.05452163641
30
0
40
0.111666666666679
0
LINE
8
Základní_vrstva
62
3
10
3014.99072529356
20
3101.65000288641
30
0
11
3014.91032529356
21
3101.83760288641
31
0
0
LINE
8
Základní_vrstva
62
3
10
3014.91032529356
20
3101.83760288641
30
0
11
3014.77632529356
21
3102.04530288641
31
0
0
LINE
8
Základní_vrstva
62
3
10
3014.77632529356
20
3102.04530288641
30
0
11
3014.71602529356
21
3102.27310288641
31
0
0
LINE
8
Základní_vrstva
62
3
10
3014.71602529356
20
3102.27310288641
30
0
11
3014.62222529356
21
3102.47410288641
31
0
0
LINE
8
Základní_vrstva
62
3
10
3014.62222529356
20
3102.47410288641
30
0
11
3014.40782529356
21
3102.58130288641
31
0
0
LINE
8
Základní_vrstva
62
3
10
3014.40782529356
20
3102.58130288641
30
0
11
3014.18672529356
21
3102.64160288641
31
0
0
LINE
8
Základní_vrstva
62
3
10
3014.18672529356
20
3102.64160288641
30
0
11
3014.00582529356
21
3102.76890288641
31
0
0
LINE
8
Základní_vrstva
62
3
10
3014.00582529356
20
3102.76890288641
30
0
11
3013.79812529356
21
3102.86270288641
31
0
0
LINE
8
Základní_vrstva
62
3
10
3013.79812529356
20
3102.86270288641
30
0
11
3013.57702529356
21
3102.80240288641
31
0
0
LINE
8
Základní_vrstva
62
3
10
3013.57702529356
20
3102.80240288641
30
0
11
3013.38272529356
21
3102.70860288641
31
0
0
LINE
8
Základní_vrstva
62
3
10
3013.38272529356
20
3102.70860288641
30
0
11
3013.15492529356
21
3102.68850288641
31
0
0
LINE
8
Základní_vrstva
62
3
10
3013.15492529356
20
3102.68850288641
30
0
11
3012.92712529356
21
3102.63490288641
31
0
0
LINE
8
Základní_vrstva
62
3
10
3012.92712529356
20
3102.63490288641
30
0
11
3012.78642529356
21
3102.44060288641
31
0
0
LINE
8
Základní_vrstva
62
3
10
3012.78642529356
20
3102.44060288641
30
0
11
3012.68592529356
21
3102.23290288641
31
0
0
LINE
8
Základní_vrstva
62
3
10
3012.68592529356
20
3102.23290288641
30
0
11
3012.53182529356
21
3102.07880288641
31
0
0
LINE
8
Základní_vrstva
62
3
10
3012.53182529356
20
3102.07880288641
30
0
11
3012.39782529356
21
3101.87110288641
31
0
0
LINE
8
Základní_vrstva
62
3
10
3012.39782529356
20
3101.87110288641
30
0
11
3012.41792529356
21
3101.64330288641
31
0
0
LINE
8
Základní_vrstva
62
3
10
3012.41792529356
20
3101.64330288641
30
0
11
3012.47822529356
21
3101.43560288641
31
0
0
LINE
8
Základní_vrstva
62
3
10
3012.47822529356
20
3101.43560288641
30
0
11
3012.45142529356
21
3101.21450288641
31
0
0
LINE
8
Základní_vrstva
62
3
10
3012.45142529356
20
3101.21450288641
30
0
11
3012.47152529356
21
3100.98670288641
31
0
0
LINE
8
Základní_vrstva
62
3
10
3012.47152529356
20
3100.98670288641
30
0
11
3012.63902529356
21
3100.81250288641
31
0
0
LINE
8
Základní_vrstva
62
3
10
3012.63902529356
20
3100.81250288641
30
0
11
3012.83332529356
21
3100.67850288641
31
0
0
LINE
8
Základní_vrstva
62
3
10
3012.83332529356
20
3100.67850288641
30
0
11
3012.96062529356
21
3100.49760288641
31
0
0
LINE
8
Základní_vrstva
62
3
10
3012.96062529356
20
3100.49760288641
30
0
11
3013.10802529356
21
3100.34350288641
31
0
0
LINE
8
Základní_vrstva
62
3
10
3013.10802529356
20
3100.34350288641
30
0
11
3013.33582529356
21
3100.32340288641
31
0
0
LINE
8
Základní_vrstva
62
3
10
3013.33582529356
20
3100.32340288641
30
0
11
3013.57032529356
21
3100.34350288641
31
0
0
LINE
8
Základní_vrstva
62
3
10
3013.57032529356
20
3100.34350288641
30
0
11
3013.78472529356
21
3100.28320288641
31
0
0
LINE
8
Základní_vrstva
62
3
10
3013.78472529356
20
3100.28320288641
30
0
11
3014.01922529356
21
3100.26310288641
31
0
0
LINE
8
Základní_vrstva
62
3
10
3014.01922529356
20
3100.26310288641
30
0
11
3014.20682529356
21
3100.39040288641
31
0
0
LINE
8
Základní_vrstva
62
3
10
3014.20682529356
20
3100.39040288641
30
0
11
3014.36092529356
21
3100.55120288641
31
0
0
LINE
8
Základní_vrstva
62
3
10
3014.36092529356
20
3100.55120288641
30
0
11
3014.56862529356
21
3100.64500288641
31
0
0
LINE
8
Základní_vrstva
62
3
10
3014.56862529356
20
3100.64500288641
30
0
11
3014.76292529356
21
3100.78570288641
31
0
0
LINE
8
Základní_vrstva
62
3
10
3014.76292529356
20
3100.78570288641
30
0
11
3014.82992529356
21
3101.01350288641
31
0
0
LINE
8
Základní_vrstva
62
3
10
3014.82992529356
20
3101.01350288641
30
0
11
3014.84332529356
21
3101.24130288641
31
0
0
LINE
8
Základní_vrstva
62
3
10
3014.84332529356
20
3101.24130288641
30
0
11
3014.93712529356
21
3101.45570288641
31
0
0
LINE
8
Základní_vrstva
62
3
10
3014.93712529356
20
3101.45570288641
30
0
11
3014.99742529356
21
3101.65000288641
31
0
0
CIRCLE
8
Základní_vrstva
62
3
10
3013.67752529356
20
3101.54280288641
30
0
40
0.111666666666679
0
LINE
8
Základní_vrstva
62
3
10
3020.94385029356
20
3103.23750288641
30
0
11
3020.86345029356
21
3103.42510288641
31
0
0
LINE
8
Základní_vrstva
62
3
10
3020.86345029356
20
3103.42510288641
30
0
11
3020.72945029356
21
3103.63280288641
31
0
0
LINE
8
Základní_vrstva
62
3
10
3020.72945029356
20
3103.63280288641
30
0
11
3020.66915029356
21
3103.86060288641
31
0
0
LINE
8
Základní_vrstva
62
3
10
3020.66915029356
20
3103.86060288641
30
0
11
3020.57535029356
21
3104.06160288641
31
0
0
LINE
8
Základní_vrstva
62
3
10
3020.57535029356
20
3104.06160288641
30
0
11
3020.36095029356
21
3104.16880288641
31
0
0
LINE
8
Základní_vrstva
62
3
10
3020.36095029356
20
3104.16880288641
30
0
11
3020.13985029356
21
3104.22910288641
31
0
0
LINE
8
Základní_vrstva
62
3
10
3020.13985029356
20
3104.22910288641
30
0
11
3019.95895029356
21
3104.35640288641
31
0
0
LINE
8
Základní_vrstva
62
3
10
3019.95895029356
20
3104.35640288641
30
0
11
3019.75125029356
21
3104.45020288641
31
0
0
LINE
8
Základní_vrstva
62
3
10
3019.75125029356
20
3104.45020288641
30
0
11
3019.53015029356
21
3104.38990288641
31
0
0
LINE
8
Základní_vrstva
62
3
10
3019.53015029356
20
3104.38990288641
30
0
11
3019.33585029356
21
3104.29610288641
31
0
0
LINE
8
Základní_vrstva
62
3
10
3019.33585029356
20
3104.29610288641
30
0
11
3019.10805029356
21
3104.27600288641
31
0
0
LINE
8
Základní_vrstva
62
3
10
3019.10805029356
20
3104.27600288641
30
0
11
3018.88025029356
21
3104.22240288641
31
0
0
LINE
8
Základní_vrstva
62
3
10
3018.88025029356
20
3104.22240288641
30
0
11
3018.73955029356
21
3104.02810288641
31
0
0
LINE
8
Základní_vrstva
62
3
10
3018.73955029356
20
3104.02810288641
30
0
11
3018.63905029356
21
3103.82040288641
31
0
0
LINE
8
Základní_vrstva
62
3
10
3018.63905029356
20
3103.82040288641
30
0
11
3018.48495029356
21
3103.66630288641
31
0
0
LINE
8
Základní_vrstva
62
3
10
3018.48495029356
20
3103.66630288641
30
0
11
3018.35095029356
21
3103.45860288641
31
0
0
LINE
8
Základní_vrstva
62
3
10
3018.35095029356
20
3103.45860288641
30
0
11
3018.37105029356
21
3103.23080288641
31
0
0
LINE
8
Základní_vrstva
62
3
10
3018.37105029356
20
3103.23080288641
30
0
11
3018.43135029356
21
3103.02310288641
31
0
0
LINE
8
Základní_vrstva
62
3
10
3018.43135029356
20
3103.02310288641
30
0
11
3018.40455029356
21
3102.80200288641
31
0
0
LINE
8
Základní_vrstva
62
3
10
3018.40455029356
20
3102.80200288641
30
0
11
3018.42465029356
21
3102.57420288641
31
0
0
LINE
8
Základní_vrstva
62
3
10
3018.42465029356
20
3102.57420288641
30
0
11
3018.59215029356
21
3102.40000288641
31
0
0
LINE
8
Základní_vrstva
62
3
10
3018.59215029356
20
3102.40000288641
30
0
11
3018.78645029356
21
3102.26600288641
31
0
0
LINE
8
Základní_vrstva
62
3
10
3018.78645029356
20
3102.26600288641
30
0
11
3018.91375029356
21
3102.08510288641
31
0
0
LINE
8
Základní_vrstva
62
3
10
3018.91375029356
20
3102.08510288641
30
0
11
3019.06115029356
21
3101.93100288641
31
0
0
LINE
8
Základní_vrstva
62
3
10
3019.06115029356
20
3101.93100288641
30
0
11
3019.28895029356
21
3101.91090288641
31
0
0
LINE
8
Základní_vrstva
62
3
10
3019.28895029356
20
3101.91090288641
30
0
11
3019.52345029356
21
3101.93100288641
31
0
0
LINE
8
Základní_vrstva
62
3
10
3019.52345029356
20
3101.93100288641
30
0
11
3019.73785029356
21
3101.87070288641
31
0
0
LINE
8
Základní_vrstva
62
3
10
3019.73785029356
20
3101.87070288641
30
0
11
3019.97235029356
21
3101.85060288641
31
0
0
LINE
8
Základní_vrstva
62
3
10
3019.97235029356
20
3101.85060288641
30
0
11
3020.15995029356
21
3101.97790288641
31
0
0
LINE
8
Základní_vrstva
62
3
10
3020.15995029356
20
3101.97790288641
30
0
11
3020.31405029356
21
3102.13870288641
31
0
0
LINE
8
Základní_vrstva
62
3
10
3020.31405029356
20
3102.13870288641
30
0
11
3020.52175029356
21
3102.23250288641
31
0
0
LINE
8
Základní_vrstva
62
3
10
3020.52175029356
20
3102.23250288641
30
0
11
3020.71605029356
21
3102.37320288641
31
0
0
LINE
8
Základní_vrstva
62
3
10
3020.71605029356
20
3102.37320288641
30
0
11
3020.78305029356
21
3102.60100288641
31
0
0
LINE
8
Základní_vrstva
62
3
10
3020.78305029356
20
3102.60100288641
30
0
11
3020.79645029356
21
3102.82880288641
31
0
0
LINE
8
Základní_vrstva
62
3
10
3020.79645029356
20
3102.82880288641
30
0
11
3020.89025029356
21
3103.04320288641
31
0
0
LINE
8
Základní_vrstva
62
3
10
3020.89025029356
20
3103.04320288641
30
0
11
3020.95055029356
21
3103.23750288641
31
0
0
CIRCLE
8
Základní_vrstva
62
3
10
3019.63065029356
20
3103.13030288641
30
0
40
0.111666666666679
0
LINE
8
Základní_vrstva
62
3
10
3026.00400654356
20
3104.42812788641
30
0
11
3025.92360654356
21
3104.61572788641
31
0
0
LINE
8
Základní_vrstva
62
3
10
3025.92360654356
20
3104.61572788641
30
0
11
3025.78960654356
21
3104.82342788641
31
0
0
LINE
8
Základní_vrstva
62
3
10
3025.78960654356
20
3104.82342788641
30
0
11
3025.72930654356
21
3105.05122788641
31
0
0
LINE
8
Základní_vrstva
62
3
10
3025.72930654356
20
3105.05122788641
30
0
11
3025.63550654356
21
3105.25222788641
31
0
0
LINE
8
Základní_vrstva
62
3
10
3025.63550654356
20
3105.25222788641
30
0
11
3025.42110654356
21
3105.35942788641
31
0
0
LINE
8
Základní_vrstva
62
3
10
3025.42110654356
20
3105.35942788641
30
0
11
3025.20000654356
21
3105.41972788641
31
0
0
LINE
8
Základní_vrstva
62
3
10
3025.20000654356
20
3105.41972788641
30
0
11
3025.01910654356
21
3105.54702788641
31
0
0
LINE
8
Základní_vrstva
62
3
10
3025.01910654356
20
3105.54702788641
30
0
11
3024.81140654356
21
3105.64082788641
31
0
0
LINE
8
Základní_vrstva
62
3
10
3024.81140654356
20
3105.64082788641
30
0
11
3024.59030654356
21
3105.58052788641
31
0
0
LINE
8
Základní_vrstva
62
3
10
3024.59030654356
20
3105.58052788641
30
0
11
3024.39600654356
21
3105.48672788641
31
0
0
LINE
8
Základní_vrstva
62
3
10
3024.39600654356
20
3105.48672788641
30
0
11
3024.16820654356
21
3105.46662788641
31
0
0
LINE
8
Základní_vrstva
62
3
10
3024.16820654356
20
3105.46662788641
30
0
11
3023.94040654356
21
3105.41302788641
31
0
0
LINE
8
Základní_vrstva
62
3
10
3023.94040654356
20
3105.41302788641
30
0
11
3023.79970654356
21
3105.21872788641
31
0
0
LINE
8
Základní_vrstva
62
3
10
3023.79970654356
20
3105.21872788641
30
0
11
3023.69920654356
21
3105.01102788641
31
0
0
LINE
8
Základní_vrstva
62
3
10
3023.69920654356
20
3105.01102788641
30
0
11
3023.54510654356
21
3104.85692788641
31
0
0
LINE
8
Základní_vrstva
62
3
10
3023.54510654356
20
3104.85692788641
30
0
11
3023.41110654356
21
3104.64922788641
31
0
0
LINE
8
Základní_vrstva
62
3
10
3023.41110654356
20
3104.64922788641
30
0
11
3023.43120654356
21
3104.42142788641
31
0
0
LINE
8
Základní_vrstva
62
3
10
3023.43120654356
20
3104.42142788641
30
0
11
3023.49150654356
21
3104.21372788641
31
0
0
LINE
8
Základní_vrstva
62
3
10
3023.49150654356
20
3104.21372788641
30
0
11
3023.46470654356
21
3103.99262788641
31
0
0
LINE
8
Základní_vrstva
62
3
10
3023.46470654356
20
3103.99262788641
30
0
11
3023.48480654356
21
3103.76482788641
31
0
0
LINE
8
Základní_vrstva
62
3
10
3023.48480654356
20
3103.76482788641
30
0
11
3023.65230654356
21
3103.59062788641
31
0
0
LINE
8
Základní_vrstva
62
3
10
3023.65230654356
20
3103.59062788641
30
0
11
3023.84660654356
21
3103.45662788641
31
0
0
LINE
8
Základní_vrstva
62
3
10
3023.84660654356
20
3103.45662788641
30
0
11
3023.97390654356
21
3103.27572788641
31
0
0
LINE
8
Základní_vrstva
62
3
10
3023.97390654356
20
3103.27572788641
30
0
11
3024.12130654356
21
3103.12162788641
31
0
0
LINE
8
Základní_vrstva
62
3
10
3024.12130654356
20
3103.12162788641
30
0
11
3024.34910654356
21
3103.10152788641
31
0
0
LINE
8
Základní_vrstva
62
3
10
3024.34910654356
20
3103.10152788641
30
0
11
3024.58360654356
21
3103.12162788641
31
0
0
LINE
8
Základní_vrstva
62
3
10
3024.58360654356
20
3103.12162788641
30
0
11
3024.79800654356
21
3103.06132788641
31
0
0
LINE
8
Základní_vrstva
62
3
10
3024.79800654356
20
3103.06132788641
30
0
11
3025.03250654356
21
3103.04122788641
31
0
0
LINE
8
Základní_vrstva
62
3
10
3025.03250654356
20
3103.04122788641
30
0
11
3025.22010654356
21
3103.16852788641
31
0
0
LINE
8
Základní_vrstva
62
3
10
3025.22010654356
20
3103.16852788641
30
0
11
3025.37420654356
21
3103.32932788641
31
0
0
LINE
8
Základní_vrstva
62
3
10
3025.37420654356
20
3103.32932788641
30
0
11
3025.58190654356
21
3103.42312788641
31
0
0
LINE
8
Základní_vrstva
62
3
10
3025.58190654356
20
3103.42312788641
30
0
11
3025.77620654356
21
3103.56382788641
31
0
0
LINE
8
Základní_vrstva
62
3
10
3025.77620654356
20
3103.56382788641
30
0
11
3025.84320654356
21
3103.79162788641
31
0
0
LINE
8
Základní_vrstva
62
3
10
3025.84320654356
20
3103.79162788641
30
0
11
3025.85660654356
21
3104.01942788641
31
0
0
LINE
8
Základní_vrstva
62
3
10
3025.85660654356
20
3104.01942788641
30
0
11
3025.95040654356
21
3104.23382788641
31
0
0
LINE
8
Základní_vrstva
62
3
10
3025.95040654356
20
3104.23382788641
30
0
11
3026.01070654356
21
3104.42812788641
31
0
0
CIRCLE
8
Základní_vrstva
62
3
10
3024.69080654356
20
3104.32092788641
30
0
40
0.111666666666679
0
LINE
8
Základní_vrstva
62
3
10
3031.95713154356
20
3105.91640913641
30
0
11
3031.87673154356
21
3106.10400913641
31
0
0
LINE
8
Základní_vrstva
62
3
10
3031.87673154356
20
3106.10400913641
30
0
11
3031.74273154356
21
3106.31170913641
31
0
0
LINE
8
Základní_vrstva
62
3
10
3031.74273154356
20
3106.31170913641
30
0
11
3031.68243154356
21
3106.53950913641
31
0
0
LINE
8
Základní_vrstva
62
3
10
3031.68243154356
20
3106.53950913641
30
0
11
3031.58863154356
21
3106.74050913641
31
0
0
LINE
8
Základní_vrstva
62
3
10
3031.58863154356
20
3106.74050913641
30
0
11
3031.37423154356
21
3106.84770913641
31
0
0
LINE
8
Základní_vrstva
62
3
10
3031.37423154356
20
3106.84770913641
30
0
11
3031.15313154356
21
3106.90800913641
31
0
0
LINE
8
Základní_vrstva
62
3
10
3031.15313154356
20
3106.90800913641
30
0
11
3030.97223154356
21
3107.03530913641
31
0
0
LINE
8
Základní_vrstva
62
3
10
3030.97223154356
20
3107.03530913641
30
0
11
3030.76453154356
21
3107.12910913641
31
0
0
LINE
8
Základní_vrstva
62
3
10
3030.76453154356
20
3107.12910913641
30
0
11
3030.54343154356
21
3107.06880913641
31
0
0
LINE
8
Základní_vrstva
62
3
10
3030.54343154356
20
3107.06880913641
30
0
11
3030.34913154356
21
3106.97500913641
31
0
0
LINE
8
Základní_vrstva
62
3
10
3030.34913154356
20
3106.97500913641
30
0
11
3030.12133154356
21
3106.95490913641
31
0
0
LINE
8
Základní_vrstva
62
3
10
3030.12133154356
20
3106.95490913641
30
0
11
3029.89353154356
21
3106.90130913641
31
0
0
LINE
8
Základní_vrstva
62
3
10
3029.89353154356
20
3106.90130913641
30
0
11
3029.75283154356
21
3106.70700913641
31
0
0
LINE
8
Základní_vrstva
62
3
10
3029.75283154356
20
3106.70700913641
30
0
11
3029.65233154356
21
3106.49930913641
31
0
0
LINE
8
Základní_vrstva
62
3
10
3029.65233154356
20
3106.49930913641
30
0
11
3029.49823154356
21
3106.34520913641
31
0
0
LINE
8
Základní_vrstva
62
3
10
3029.49823154356
20
3106.34520913641
30
0
11
3029.36423154356
21
3106.13750913641
31
0
0
LINE
8
Základní_vrstva
62
3
10
3029.36423154356
20
3106.13750913641
30
0
11
3029.38433154356
21
3105.90970913641
31
0
0
LINE
8
Základní_vrstva
62
3
10
3029.38433154356
20
3105.90970913641
30
0
11
3029.44463154356
21
3105.70200913641
31
0
0
LINE
8
Základní_vrstva
62
3
10
3029.44463154356
20
3105.70200913641
30
0
11
3029.41783154356
21
3105.48090913641
31
0
0
LINE
8
Základní_vrstva
62
3
10
3029.41783154356
20
3105.48090913641
30
0
11
3029.43793154356
21
3105.25310913641
31
0
0
LINE
8
Základní_vrstva
62
3
10
3029.43793154356
20
3105.25310913641
30
0
11
3029.60543154356
21
3105.07890913641
31
0
0
LINE
8
Základní_vrstva
62
3
10
3029.60543154356
20
3105.07890913641
30
0
11
3029.79973154356
21
3104.94490913641
31
0
0
LINE
8
Základní_vrstva
62
3
10
3029.79973154356
20
3104.94490913641
30
0
11
3029.92703154356
21
3104.76400913641
31
0
0
LINE
8
Základní_vrstva
62
3
10
3029.92703154356
20
3104.76400913641
30
0
11
3030.07443154356
21
3104.60990913641
31
0
0
LINE
8
Základní_vrstva
62
3
10
3030.07443154356
20
3104.60990913641
30
0
11
3030.30223154356
21
3104.58980913641
31
0
0
LINE
8
Základní_vrstva
62
3
10
3030.30223154356
20
3104.58980913641
30
0
11
3030.53673154356
21
3104.60990913641
31
0
0
LINE
8
Základní_vrstva
62
3
10
3030.53673154356
20
3104.60990913641
30
0
11
3030.75113154356
21
3104.54960913641
31
0
0
LINE
8
Základní_vrstva
62
3
10
3030.75113154356
20
3104.54960913641
30
0
11
3030.98563154356
21
3104.52950913641
31
0
0
LINE
8
Základní_vrstva
62
3
10
3030.98563154356
20
3104.52950913641
30
0
11
3031.17323154356
21
3104.65680913641
31
0
0
LINE
8
Základní_vrstva
62
3
10
3031.17323154356
20
3104.65680913641
30
0
11
3031.32733154356
21
3104.81760913641
31
0
0
LINE
8
Základní_vrstva
62
3
10
3031.32733154356
20
3104.81760913641
30
0
11
3031.53503154356
21
3104.91140913641
31
0
0
LINE
8
Základní_vrstva
62
3
10
3031.53503154356
20
3104.91140913641
30
0
11
3031.72933154356
21
3105.05210913641
31
0
0
LINE
8
Základní_vrstva
62
3
10
3031.72933154356
20
3105.05210913641
30
0
11
3031.79633154356
21
3105.27990913641
31
0
0
LINE
8
Základní_vrstva
62
3
10
3031.79633154356
20
3105.27990913641
30
0
11
3031.80973154356
21
3105.50770913641
31
0
0
LINE
8
Základní_vrstva
62
3
10
3031.80973154356
20
3105.50770913641
30
0
11
3031.90353154356
21
3105.72210913641
31
0
0
LINE
8
Základní_vrstva
62
3
10
3031.90353154356
20
3105.72210913641
30
0
11
3031.96383154356
21
3105.91640913641
31
0
0
CIRCLE
8
Základní_vrstva
62
3
10
3030.64393154356
20
3105.80920913641
30
0
40
0.111666666666679
0
LINE
8
Základní_vrstva
62
3
10
3037.91025654356
20
3107.60312788641
30
0
11
3037.82985654356
21
3107.79072788641
31
0
0
LINE
8
Základní_vrstva
62
3
10
3037.82985654356
20
3107.79072788641
30
0
11
3037.69585654356
21
3107.99842788641
31
0
0
LINE
8
Základní_vrstva
62
3
10
3037.69585654356
20
3107.99842788641
30
0
11
3037.63555654356
21
3108.22622788641
31
0
0
LINE
8
Základní_vrstva
62
3
10
3037.63555654356
20
3108.22622788641
30
0
11
3037.54175654356
21
3108.42722788641
31
0
0
LINE
8
Základní_vrstva
62
3
10
3037.54175654356
20
3108.42722788641
30
0
11
3037.32735654356
21
3108.53442788641
31
0
0
LINE
8
Základní_vrstva
62
3
10
3037.32735654356
20
3108.53442788641
30
0
11
3037.10625654356
21
3108.59472788641
31
0
0
LINE
8
Základní_vrstva
62
3
10
3037.10625654356
20
3108.59472788641
30
0
11
3036.92535654356
21
3108.72202788641
31
0
0
LINE
8
Základní_vrstva
62
3
10
3036.92535654356
20
3108.72202788641
30
0
11
3036.71765654356
21
3108.81582788641
31
0
0
LINE
8
Základní_vrstva
62
3
10
3036.71765654356
20
3108.81582788641
30
0
11
3036.49655654356
21
3108.75552788641
31
0
0
LINE
8
Základní_vrstva
62
3
10
3036.49655654356
20
3108.75552788641
30
0
11
3036.30225654356
21
3108.66172788641
31
0
0
LINE
8
Základní_vrstva
62
3
10
3036.30225654356
20
3108.66172788641
30
0
11
3036.07445654356
21
3108.64162788641
31
0
0
LINE
8
Základní_vrstva
62
3
10
3036.07445654356
20
3108.64162788641
30
0
11
3035.84665654356
21
3108.58802788641
31
0
0
LINE
8
Základní_vrstva
62
3
10
3035.84665654356
20
3108.58802788641
30
0
11
3035.70595654356
21
3108.39372788641
31
0
0
LINE
8
Základní_vrstva
62
3
10
3035.70595654356
20
3108.39372788641
30
0
11
3035.60545654356
21
3108.18602788641
31
0
0
LINE
8
Základní_vrstva
62
3
10
3035.60545654356
20
3108.18602788641
30
0
11
3035.45135654356
21
3108.03192788641
31
0
0
LINE
8
Základní_vrstva
62
3
10
3035.45135654356
20
3108.03192788641
30
0
11
3035.31735654356
21
3107.82422788641
31
0
0
LINE
8
Základní_vrstva
62
3
10
3035.31735654356
20
3107.82422788641
30
0
11
3035.33745654356
21
3107.59642788641
31
0
0
LINE
8
Základní_vrstva
62
3
10
3035.33745654356
20
3107.59642788641
30
0
11
3035.39775654356
21
3107.38872788641
31
0
0
LINE
8
Základní_vrstva
62
3
10
3035.39775654356
20
3107.38872788641
30
0
11
3035.37095654356
21
3107.16762788641
31
0
0
LINE
8
Základní_vrstva
62
3
10
3035.37095654356
20
3107.16762788641
30
0
11
3035.39105654356
21
3106.93982788641
31
0
0
LINE
8
Základní_vrstva
62
3
10
3035.39105654356
20
3106.93982788641
30
0
11
3035.55855654356
21
3106.76562788641
31
0
0
LINE
8
Základní_vrstva
62
3
10
3035.55855654356
20
3106.76562788641
30
0
11
3035.75285654356
21
3106.63162788641
31
0
0
LINE
8
Základní_vrstva
62
3
10
3035.75285654356
20
3106.63162788641
30
0
11
3035.88015654356
21
3106.45072788641
31
0
0
LINE
8
Základní_vrstva
62
3
10
3035.88015654356
20
3106.45072788641
30
0
11
3036.02755654356
21
3106.29662788641
31
0
0
LINE
8
Základní_vrstva
62
3
10
3036.02755654356
20
3106.29662788641
30
0
11
3036.25535654356
21
3106.27652788641
31
0
0
LINE
8
Základní_vrstva
62
3
10
3036.25535654356
20
3106.27652788641
30
0
11
3036.48985654356
21
3106.29662788641
31
0
0
LINE
8
Základní_vrstva
62
3
10
3036.48985654356
20
3106.29662788641
30
0
11
3036.70425654356
21
3106.23632788641
31
0
0
LINE
8
Základní_vrstva
62
3
10
3036.70425654356
20
3106.23632788641
30
0
11
3036.93875654356
21
3106.21622788641
31
0
0
LINE
8
Základní_vrstva
62
3
10
3036.93875654356
20
3106.21622788641
30
0
11
3037.12635654356
21
3106.34352788641
31
0
0
LINE
8
Základní_vrstva
62
3
10
3037.12635654356
20
3106.34352788641
30
0
11
3037.28045654356
21
3106.50432788641
31
0
0
LINE
8
Základní_vrstva
62
3
10
3037.28045654356
20
3106.50432788641
30
0
11
3037.48815654356
21
3106.59812788641
31
0
0
LINE
8
Základní_vrstva
62
3
10
3037.48815654356
20
3106.59812788641
30
0
11
3037.68245654356
21
3106.73882788641
31
0
0
LINE
8
Základní_vrstva
62
3
10
3037.68245654356
20
3106.73882788641
30
0
11
3037.74945654356
21
3106.96662788641
31
0
0
LINE
8
Základní_vrstva
62
3
10
3037.74945654356
20
3106.96662788641
30
0
11
3037.76285654356
21
3107.19442788641
31
0
0
LINE
8
Základní_vrstva
62
3
10
3037.76285654356
20
3107.19442788641
30
0
11
3037.85665654356
21
3107.40882788641
31
0
0
LINE
8
Základní_vrstva
62
3
10
3037.85665654356
20
3107.40882788641
30
0
11
3037.91695654356
21
3107.60312788641
31
0
0
CIRCLE
8
Základní_vrstva
62
3
10
3036.59705654356
20
3107.49592788641
30
0
40
0.111666666666679
0
LINE
8
Základní_vrstva
62
3
10
3044.35947529356
20
3108.99219038641
30
0
11
3044.27907529356
21
3109.17979038641
31
0
0
LINE
8
Základní_vrstva
62
3
10
3044.27907529356
20
3109.17979038641
30
0
11
3044.14507529356
21
3109.38749038641
31
0
0
LINE
8
Základní_vrstva
62
3
10
3044.14507529356
20
3109.38749038641
30
0
11
3044.08477529356
21
3109.61529038641
31
0
0
LINE
8
Základní_vrstva
62
3
10
3044.08477529356
20
3109.61529038641
30
0
11
3043.99097529356
21
3109.81629038641
31
0
0
LINE
8
Základní_vrstva
62
3
10
3043.99097529356
20
3109.81629038641
30
0
11
3043.77657529356
21
3109.92349038641
31
0
0
LINE
8
Základní_vrstva
62
3
10
3043.77657529356
20
3109.92349038641
30
0
11
3043.55547529356
21
3109.98379038641
31
0
0
LINE
8
Základní_vrstva
62
3
10
3043.55547529356
20
3109.98379038641
30
0
11
3043.37457529356
21
3110.11109038641
31
0
0
LINE
8
Základní_vrstva
62
3
10
3043.37457529356
20
3110.11109038641
30
0
11
3043.16687529356
21
3110.20489038641
31
0
0
LINE
8
Základní_vrstva
62
3
10
3043.16687529356
20
3110.20489038641
30
0
11
3042.94577529356
21
3110.14459038641
31
0
0
LINE
8
Základní_vrstva
62
3
10
3042.94577529356
20
3110.14459038641
30
0
11
3042.75147529356
21
3110.05079038641
31
0
0
LINE
8
Základní_vrstva
62
3
10
3042.75147529356
20
3110.05079038641
30
0
11
3042.52367529356
21
3110.03069038641
31
0
0
LINE
8
Základní_vrstva
62
3
10
3042.52367529356
20
3110.03069038641
30
0
11
3042.29587529356
21
3109.97709038641
31
0
0
LINE
8
Základní_vrstva
62
3
10
3042.29587529356
20
3109.97709038641
30
0
11
3042.15517529356
21
3109.78279038641
31
0
0
LINE
8
Základní_vrstva
62
3
10
3042.15517529356
20
3109.78279038641
30
0
11
3042.05467529356
21
3109.57509038641
31
0
0
LINE
8
Základní_vrstva
62
3
10
3042.05467529356
20
3109.57509038641
30
0
11
3041.90057529356
21
3109.42099038641
31
0
0
LINE
8
Základní_vrstva
62
3
10
3041.90057529356
20
3109.42099038641
30
0
11
3041.76657529356
21
3109.21329038641
31
0
0
LINE
8
Základní_vrstva
62
3
10
3041.76657529356
20
3109.21329038641
30
0
11
3041.78667529356
21
3108.98549038641
31
0
0
LINE
8
Základní_vrstva
62
3
10
3041.78667529356
20
3108.98549038641
30
0
11
3041.84697529356
21
3108.77779038641
31
0
0
LINE
8
Základní_vrstva
62
3
10
3041.84697529356
20
3108.77779038641
30
0
11
3041.82017529356
21
3108.55669038641
31
0
0
LINE
8
Základní_vrstva
62
3
10
3041.82017529356
20
3108.55669038641
30
0
11
3041.84027529356
21
3108.32889038641
31
0
0
LINE
8
Základní_vrstva
62
3
10
3041.84027529356
20
3108.32889038641
30
0
11
3042.00777529356
21
3108.15469038641
31
0
0
LINE
8
Základní_vrstva
62
3
10
3042.00777529356
20
3108.15469038641
30
0
11
3042.20207529356
21
3108.02069038641
31
0
0
LINE
8
Základní_vrstva
62
3
10
3042.20207529356
20
3108.02069038641
30
0
11
3042.32937529356
21
3107.83979038641
31
0
0
LINE
8
Základní_vrstva
62
3
10
3042.32937529356
20
3107.83979038641
30
0
11
3042.47677529356
21
3107.68569038641
31
0
0
LINE
8
Základní_vrstva
62
3
10
3042.47677529356
20
3107.68569038641
30
0
11
3042.70457529356
21
3107.66559038641
31
0
0
LINE
8
Základní_vrstva
62
3
10
3042.70457529356
20
3107.66559038641
30
0
11
3042.93907529356
21
3107.68569038641
31
0
0
LINE
8
Základní_vrstva
62
3
10
3042.93907529356
20
3107.68569038641
30
0
11
3043.15347529356
21
3107.62539038641
31
0
0
LINE
8
Základní_vrstva
62
3
10
3043.15347529356
20
3107.62539038641
30
0
11
3043.38797529356
21
3107.60529038641
31
0
0
LINE
8
Základní_vrstva
62
3
10
3043.38797529356
20
3107.60529038641
30
0
11
3043.57557529356
21
3107.73259038641
31
0
0
LINE
8
Základní_vrstva
62
3
10
3043.57557529356
20
3107.73259038641
30
0
11
3043.72967529356
21
3107.89339038641
31
0
0
LINE
8
Základní_vrstva
62
3
10
3043.72967529356
20
3107.89339038641
30
0
11
3043.93737529356
21
3107.98719038641
31
0
0
LINE
8
Základní_vrstva
62
3
10
3043.93737529356
20
3107.98719038641
30
0
11
3044.13167529356
21
3108.12789038641
31
0
0
LINE
8
Základní_vrstva
62
3
10
3044.13167529356
20
3108.12789038641
30
0
11
3044.19867529356
21
3108.35569038641
31
0
0
LINE
8
Základní_vrstva
62
3
10
3044.19867529356
20
3108.35569038641
30
0
11
3044.21207529356
21
3108.58349038641
31
0
0
LINE
8
Základní_vrstva
62
3
10
3044.21207529356
20
3108.58349038641
30
0
11
3044.30587529356
21
3108.79789038641
31
0
0
LINE
8
Základní_vrstva
62
3
10
3044.30587529356
20
3108.79789038641
30
0
11
3044.36617529356
21
3108.99219038641
31
0
0
CIRCLE
8
Základní_vrstva
62
3
10
3043.04627529356
20
3108.88499038641
30
0
40
0.111666666666679
0
LINE
8
Základní_vrstva
62
3
10
3050.11416279356
20
3110.08359663641
30
0
11
3050.03376279356
21
3110.27119663641
31
0
0
LINE
8
Základní_vrstva
62
3
10
3050.03376279356
20
3110.27119663641
30
0
11
3049.89976279356
21
3110.47889663641
31
0
0
LINE
8
Základní_vrstva
62
3
10
3049.89976279356
20
3110.47889663641
30
0
11
3049.83946279356
21
3110.70669663641
31
0
0
LINE
8
Základní_vrstva
62
3
10
3049.83946279356
20
3110.70669663641
30
0
11
3049.74566279356
21
3110.90769663641
31
0
0
LINE
8
Základní_vrstva
62
3
10
3049.74566279356
20
3110.90769663641
30
0
11
3049.53126279356
21
3111.01489663641
31
0
0
LINE
8
Základní_vrstva
62
3
10
3049.53126279356
20
3111.01489663641
30
0
11
3049.31016279356
21
3111.07519663641
31
0
0
LINE
8
Základní_vrstva
62
3
10
3049.31016279356
20
3111.07519663641
30
0
11
3049.12926279356
21
3111.20249663641
31
0
0
LINE
8
Základní_vrstva
62
3
10
3049.12926279356
20
3111.20249663641
30
0
11
3048.92156279356
21
3111.29629663641
31
0
0
LINE
8
Základní_vrstva
62
3
10
3048.92156279356
20
3111.29629663641
30
0
11
3048.70046279356
21
3111.23599663641
31
0
0
LINE
8
Základní_vrstva
62
3
10
3048.70046279356
20
3111.23599663641
30
0
11
3048.50616279356
21
3111.14219663641
31
0
0
LINE
8
Základní_vrstva
62
3
10
3048.50616279356
20
3111.14219663641
30
0
11
3048.27836279356
21
3111.12209663641
31
0
0
LINE
8
Základní_vrstva
62
3
10
3048.27836279356
20
3111.12209663641
30
0
11
3048.05056279356
21
3111.06849663641
31
0
0
LINE
8
Základní_vrstva
62
3
10
3048.05056279356
20
3111.06849663641
30
0
11
3047.90986279356
21
3110.87419663641
31
0
0
LINE
8
Základní_vrstva
62
3
10
3047.90986279356
20
3110.87419663641
30
0
11
3047.80936279356
21
3110.66649663641
31
0
0
LINE
8
Základní_vrstva
62
3
10
3047.80936279356
20
3110.66649663641
30
0
11
3047.65526279356
21
3110.51239663641
31
0
0
LINE
8
Základní_vrstva
62
3
10
3047.65526279356
20
3110.51239663641
30
0
11
3047.52126279356
21
3110.30469663641
31
0
0
LINE
8
Základní_vrstva
62
3
10
3047.52126279356
20
3110.30469663641
30
0
11
3047.54136279356
21
3110.07689663641
31
0
0
LINE
8
Základní_vrstva
62
3
10
3047.54136279356
20
3110.07689663641
30
0
11
3047.60166279356
21
3109.86919663641
31
0
0
LINE
8
Základní_vrstva
62
3
10
3047.60166279356
20
3109.86919663641
30
0
11
3047.57486279356
21
3109.64809663641
31
0
0
LINE
8
Základní_vrstva
62
3
10
3047.57486279356
20
3109.64809663641
30
0
11
3047.59496279356
21
3109.42029663641
31
0
0
LINE
8
Základní_vrstva
62
3
10
3047.59496279356
20
3109.42029663641
30
0
11
3047.76246279356
21
3109.24609663641
31
0
0
LINE
8
Základní_vrstva
62
3
10
3047.76246279356
20
3109.24609663641
30
0
11
3047.95676279356
21
3109.11209663641
31
0
0
LINE
8
Základní_vrstva
62
3
10
3047.95676279356
20
3109.11209663641
30
0
11
3048.08406279356
21
3108.93119663641
31
0
0
LINE
8
Základní_vrstva
62
3
10
3048.08406279356
20
3108.93119663641
30
0
11
3048.23146279356
21
3108.77709663641
31
0
0
LINE
8
Základní_vrstva
62
3
10
3048.23146279356
20
3108.77709663641
30
0
11
3048.45926279356
21
3108.75699663641
31
0
0
LINE
8
Základní_vrstva
62
3
10
3048.45926279356
20
3108.75699663641
30
0
11
3048.69376279356
21
3108.77709663641
31
0
0
LINE
8
Základní_vrstva
62
3
10
3048.69376279356
20
3108.77709663641
30
0
11
3048.90816279356
21
3108.71679663641
31
0
0
LINE
8
Základní_vrstva
62
3
10
3048.90816279356
20
3108.71679663641
30
0
11
3049.14266279356
21
3108.69669663641
31
0
0
LINE
8
Základní_vrstva
62
3
10
3049.14266279356
20
3108.69669663641
30
0
11
3049.33026279356
21
3108.82399663641
31
0
0
LINE
8
Základní_vrstva
62
3
10
3049.33026279356
20
3108.82399663641
30
0
11
3049.48436279356
21
3108.98479663641
31
0
0
LINE
8
Základní_vrstva
62
3
10
3049.48436279356
20
3108.98479663641
30
0
11
3049.69206279356
21
3109.07859663641
31
0
0
LINE
8
Základní_vrstva
62
3
10
3049.69206279356
20
3109.07859663641
30
0
11
3049.88636279356
21
3109.21929663641
31
0
0
LINE
8
Základní_vrstva
62
3
10
3049.88636279356
20
3109.21929663641
30
0
11
3049.95336279356
21
3109.44709663641
31
0
0
LINE
8
Základní_vrstva
62
3
10
3049.95336279356
20
3109.44709663641
30
0
11
3049.96676279356
21
3109.67489663641
31
0
0
LINE
8
Základní_vrstva
62
3
10
3049.96676279356
20
3109.67489663641
30
0
11
3050.06056279356
21
3109.88929663641
31
0
0
LINE
8
Základní_vrstva
62
3
10
3050.06056279356
20
3109.88929663641
30
0
11
3050.12086279356
21
3110.08359663641
31
0
0
CIRCLE
8
Základní_vrstva
62
3
10
3048.80096279356
20
3109.97639663641
30
0
40
0.111666666666679
0
LINE
8
Základní_vrstva
62
3
10
3055.76963154356
20
3111.37344038641
30
0
11
3055.68923154356
21
3111.56104038641
31
0
0
LINE
8
Základní_vrstva
62
3
10
3055.68923154356
20
3111.56104038641
30
0
11
3055.55523154356
21
3111.76874038641
31
0
0
LINE
8
Základní_vrstva
62
3
10
3055.55523154356
20
3111.76874038641
30
0
11
3055.49493154356
21
3111.99654038641
31
0
0
LINE
8
Základní_vrstva
62
3
10
3055.49493154356
20
3111.99654038641
30
0
11
3055.40113154356
21
3112.19754038641
31
0
0
LINE
8
Základní_vrstva
62
3
10
3055.40113154356
20
3112.19754038641
30
0
11
3055.18673154356
21
3112.30474038641
31
0
0
LINE
8
Základní_vrstva
62
3
10
3055.18673154356
20
3112.30474038641
30
0
11
3054.96563154356
21
3112.36504038641
31
0
0
LINE
8
Základní_vrstva
62
3
10
3054.96563154356
20
3112.36504038641
30
0
11
3054.78473154356
21
3112.49234038641
31
0
0
LINE
8
Základní_vrstva
62
3
10
3054.78473154356
20
3112.49234038641
30
0
11
3054.57703154356
21
3112.58614038641
31
0
0
LINE
8
Základní_vrstva
62
3
10
3054.57703154356
20
3112.58614038641
30
0
11
3054.35593154356
21
3112.52584038641
31
0
0
LINE
8
Základní_vrstva
62
3
10
3054.35593154356
20
3112.52584038641
30
0
11
3054.16163154356
21
3112.43204038641
31
0
0
LINE
8
Základní_vrstva
62
3
10
3054.16163154356
20
3112.43204038641
30
0
11
3053.93383154356
21
3112.41194038641
31
0
0
LINE
8
Základní_vrstva
62
3
10
3053.93383154356
20
3112.41194038641
30
0
11
3053.70603154356
21
3112.35834038641
31
0
0
LINE
8
Základní_vrstva
62
3
10
3053.70603154356
20
3112.35834038641
30
0
11
3053.56533154356
21
3112.16404038641
31
0
0
LINE
8
Základní_vrstva
62
3
10
3053.56533154356
20
3112.16404038641
30
0
11
3053.46483154356
21
3111.95634038641
31
0
0
LINE
8
Základní_vrstva
62
3
10
3053.46483154356
20
3111.95634038641
30
0
11
3053.31073154356
21
3111.80224038641
31
0
0
LINE
8
Základní_vrstva
62
3
10
3053.31073154356
20
3111.80224038641
30
0
11
3053.17673154356
21
3111.59454038641
31
0
0
LINE
8
Základní_vrstva
62
3
10
3053.17673154356
20
3111.59454038641
30
0
11
3053.19683154356
21
3111.36674038641
31
0
0
LINE
8
Základní_vrstva
62
3
10
3053.19683154356
20
3111.36674038641
30
0
11
3053.25713154356
21
3111.15904038641
31
0
0
LINE
8
Základní_vrstva
62
3
10
3053.25713154356
20
3111.15904038641
30
0
11
3053.23033154356
21
3110.93794038641
31
0
0
LINE
8
Základní_vrstva
62
3
10
3053.23033154356
20
3110.93794038641
30
0
11
3053.25043154356
21
3110.71014038641
31
0
0
LINE
8
Základní_vrstva
62
3
10
3053.25043154356
20
3110.71014038641
30
0
11
3053.41793154356
21
3110.53594038641
31
0
0
LINE
8
Základní_vrstva
62
3
10
3053.41793154356
20
3110.53594038641
30
0
11
3053.61223154356
21
3110.40194038641
31
0
0
LINE
8
Základní_vrstva
62
3
10
3053.61223154356
20
3110.40194038641
30
0
11
3053.73953154356
21
3110.22104038641
31
0
0
LINE
8
Základní_vrstva
62
3
10
3053.73953154356
20
3110.22104038641
30
0
11
3053.88693154356
21
3110.06694038641
31
0
0
LINE
8
Základní_vrstva
62
3
10
3053.88693154356
20
3110.06694038641
30
0
11
3054.11473154356
21
3110.04684038641
31
0
0
LINE
8
Základní_vrstva
62
3
10
3054.11473154356
20
3110.04684038641
30
0
11
3054.34923154356
21
3110.06694038641
31
0
0
LINE
8
Základní_vrstva
62
3
10
3054.34923154356
20
3110.06694038641
30
0
11
3054.56363154356
21
3110.00664038641
31
0
0
LINE
8
Základní_vrstva
62
3
10
3054.56363154356
20
3110.00664038641
30
0
11
3054.79813154356
21
3109.98654038641
31
0
0
LINE
8
Základní_vrstva
62
3
10
3054.79813154356
20
3109.98654038641
30
0
11
3054.98573154356
21
3110.11384038641
31
0
0
LINE
8
Základní_vrstva
62
3
10
3054.98573154356
20
3110.11384038641
30
0
11
3055.13983154356
21
3110.27464038641
31
0
0
LINE
8
Základní_vrstva
62
3
10
3055.13983154356
20
3110.27464038641
30
0
11
3055.34753154356
21
3110.36844038641
31
0
0
LINE
8
Základní_vrstva
62
3
10
3055.34753154356
20
3110.36844038641
30
0
11
3055.54183154356
21
3110.50914038641
31
0
0
LINE
8
Základní_vrstva
62
3
10
3055.54183154356
20
3110.50914038641
30
0
11
3055.60883154356
21
3110.73694038641
31
0
0
LINE
8
Základní_vrstva
62
3
10
3055.60883154356
20
3110.73694038641
30
0
11
3055.62223154356
21
3110.96474038641
31
0
0
LINE
8
Základní_vrstva
62
3
10
3055.62223154356
20
3110.96474038641
30
0
11
3055.71603154356
21
3111.17914038641
31
0
0
LINE
8
Základní_vrstva
62
3
10
3055.71603154356
20
3111.17914038641
30
0
11
3055.77633154356
21
3111.37344038641
31
0
0
CIRCLE
8
Základní_vrstva
62
3
10
3054.45643154356
20
3111.26624038641
30
0
40
0.111666666666679
0
LINE
8
Základní_vrstva
62
3
10
3061.72275654356
20
3112.76250288641
30
0
11
3061.64235654356
21
3112.95010288641
31
0
0
LINE
8
Základní_vrstva
62
3
10
3061.64235654356
20
3112.95010288641
30
0
11
3061.50835654356
21
3113.15780288641
31
0
0
LINE
8
Základní_vrstva
62
3
10
3061.50835654356
20
3113.15780288641
30
0
11
3061.44805654356
21
3113.38560288641
31
0
0
LINE
8
Základní_vrstva
62
3
10
3061.44805654356
20
3113.38560288641
30
0
11
3061.35425654356
21
3113.58660288641
31
0
0
LINE
8
Základní_vrstva
62
3
10
3061.35425654356
20
3113.58660288641
30
0
11
3061.13985654356
21
3113.69380288641
31
0
0
LINE
8
Základní_vrstva
62
3
10
3061.13985654356
20
3113.69380288641
30
0
11
3060.91875654356
21
3113.75410288641
31
0
0
LINE
8
Základní_vrstva
62
3
10
3060.91875654356
20
3113.75410288641
30
0
11
3060.73785654356
21
3113.88140288641
31
0
0
LINE
8
Základní_vrstva
62
3
10
3060.73785654356
20
3113.88140288641
30
0
11
3060.53015654356
21
3113.97520288641
31
0
0
LINE
8
Základní_vrstva
62
3
10
3060.53015654356
20
3113.97520288641
30
0
11
3060.30905654356
21
3113.91490288641
31
0
0
LINE
8
Základní_vrstva
62
3
10
3060.30905654356
20
3113.91490288641
30
0
11
3060.11475654356
21
3113.82110288641
31
0
0
LINE
8
Základní_vrstva
62
3
10
3060.11475654356
20
3113.82110288641
30
0
11
3059.88695654356
21
3113.80100288641
31
0
0
LINE
8
Základní_vrstva
62
3
10
3059.88695654356
20
3113.80100288641
30
0
11
3059.65915654356
21
3113.74740288641
31
0
0
LINE
8
Základní_vrstva
62
3
10
3059.65915654356
20
3113.74740288641
30
0
11
3059.51845654356
21
3113.55310288641
31
0
0
LINE
8
Základní_vrstva
62
3
10
3059.51845654356
20
3113.55310288641
30
0
11
3059.41795654356
21
3113.34540288641
31
0
0
LINE
8
Základní_vrstva
62
3
10
3059.41795654356
20
3113.34540288641
30
0
11
3059.26385654356
21
3113.19130288641
31
0
0
LINE
8
Základní_vrstva
62
3
10
3059.26385654356
20
3113.19130288641
30
0
11
3059.12985654356
21
3112.98360288641
31
0
0
LINE
8
Základní_vrstva
62
3
10
3059.12985654356
20
3112.98360288641
30
0
11
3059.14995654356
21
3112.75580288641
31
0
0
LINE
8
Základní_vrstva
62
3
10
3059.14995654356
20
3112.75580288641
30
0
11
3059.21025654356
21
3112.54810288641
31
0
0
LINE
8
Základní_vrstva
62
3
10
3059.21025654356
20
3112.54810288641
30
0
11
3059.18345654356
21
3112.32700288641
31
0
0
LINE
8
Základní_vrstva
62
3
10
3059.18345654356
20
3112.32700288641
30
0
11
3059.20355654356
21
3112.09920288641
31
0
0
LINE
8
Základní_vrstva
62
3
10
3059.20355654356
20
3112.09920288641
30
0
11
3059.37105654356
21
3111.92500288641
31
0
0
LINE
8
Základní_vrstva
62
3
10
3059.37105654356
20
3111.92500288641
30
0
11
3059.56535654356
21
3111.79100288641
31
0
0
LINE
8
Základní_vrstva
62
3
10
3059.56535654356
20
3111.79100288641
30
0
11
3059.69265654356
21
3111.61010288641
31
0
0
LINE
8
Základní_vrstva
62
3
10
3059.69265654356
20
3111.61010288641
30
0
11
3059.84005654356
21
3111.45600288641
31
0
0
LINE
8
Základní_vrstva
62
3
10
3059.84005654356
20
3111.45600288641
30
0
11
3060.06785654356
21
3111.43590288641
31
0
0
LINE
8
Základní_vrstva
62
3
10
3060.06785654356
20
3111.43590288641
30
0
11
3060.30235654356
21
3111.45600288641
31
0
0
LINE
8
Základní_vrstva
62
3
10
3060.30235654356
20
3111.45600288641
30
0
11
3060.51675654356
21
3111.39570288641
31
0
0
LINE
8
Základní_vrstva
62
3
10
3060.51675654356
20
3111.39570288641
30
0
11
3060.75125654356
21
3111.37560288641
31
0
0
LINE
8
Základní_vrstva
62
3
10
3060.75125654356
20
3111.37560288641
30
0
11
3060.93885654356
21
3111.50290288641
31
0
0
LINE
8
Základní_vrstva
62
3
10
3060.93885654356
20
3111.50290288641
30
0
11
3061.09295654356
21
3111.66370288641
31
0
0
LINE
8
Základní_vrstva
62
3
10
3061.09295654356
20
3111.66370288641
30
0
11
3061.30065654356
21
3111.75750288641
31
0
0
LINE
8
Základní_vrstva
62
3
10
3061.30065654356
20
3111.75750288641
30
0
11
3061.49495654356
21
3111.89820288641
31
0
0
LINE
8
Základní_vrstva
62
3
10
3061.49495654356
20
3111.89820288641
30
0
11
3061.56195654356
21
3112.12600288641
31
0
0
LINE
8
Základní_vrstva
62
3
10
3061.56195654356
20
3112.12600288641
30
0
11
3061.57535654356
21
3112.35380288641
31
0
0
LINE
8
Základní_vrstva
62
3
10
3061.57535654356
20
3112.35380288641
30
0
11
3061.66915654356
21
3112.56820288641
31
0
0
LINE
8
Základní_vrstva
62
3
10
3061.66915654356
20
3112.56820288641
30
0
11
3061.72945654356
21
3112.76250288641
31
0
0
CIRCLE
8
Základní_vrstva
62
3
10
3060.40955654356
20
3112.65530288641
30
0
40
0.111666666666679
0
LINE
8
Základní_vrstva
62
3
10
3072.93447529356
20
3115.54062788641
30
0
11
3072.85407529356
21
3115.72822788641
31
0
0
LINE
8
Základní_vrstva
62
3
10
3072.85407529356
20
3115.72822788641
30
0
11
3072.72007529356
21
3115.93592788641
31
0
0
LINE
8
Základní_vrstva
62
3
10
3072.72007529356
20
3115.93592788641
30
0
11
3072.65977529356
21
3116.16372788641
31
0
0
LINE
8
Základní_vrstva
62
3
10
3072.65977529356
20
3116.16372788641
30
0
11
3072.56597529356
21
3116.36472788641
31
0
0
LINE
8
Základní_vrstva
62
3
10
3072.56597529356
20
3116.36472788641
30
0
11
3072.35157529356
21
3116.47192788641
31
0
0
LINE
8
Základní_vrstva
62
3
10
3072.35157529356
20
3116.47192788641
30
0
11
3072.13047529356
21
3116.53222788641
31
0
0
LINE
8
Základní_vrstva
62
3
10
3072.13047529356
20
3116.53222788641
30
0
11
3071.94957529356
21
3116.65952788641
31
0
0
LINE
8
Základní_vrstva
62
3
10
3071.94957529356
20
3116.65952788641
30
0
11
3071.74187529356
21
3116.75332788641
31
0
0
LINE
8
Základní_vrstva
62
3
10
3071.74187529356
20
3116.75332788641
30
0
11
3071.52077529356
21
3116.69302788641
31
0
0
LINE
8
Základní_vrstva
62
3
10
3071.52077529356
20
3116.69302788641
30
0
11
3071.32647529356
21
3116.59922788641
31
0
0
LINE
8
Základní_vrstva
62
3
10
3071.32647529356
20
3116.59922788641
30
0
11
3071.09867529356
21
3116.57912788641
31
0
0
LINE
8
Základní_vrstva
62
3
10
3071.09867529356
20
3116.57912788641
30
0
11
3070.87087529356
21
3116.52552788641
31
0
0
LINE
8
Základní_vrstva
62
3
10
3070.87087529356
20
3116.52552788641
30
0
11
3070.73017529356
21
3116.33122788641
31
0
0
LINE
8
Základní_vrstva
62
3
10
3070.73017529356
20
3116.33122788641
30
0
11
3070.62967529356
21
3116.12352788641
31
0
0
LINE
8
Základní_vrstva
62
3
10
3070.62967529356
20
3116.12352788641
30
0
11
3070.47557529356
21
3115.96942788641
31
0
0
LINE
8
Základní_vrstva
62
3
10
3070.47557529356
20
3115.96942788641
30
0
11
3070.34157529356
21
3115.76172788641
31
0
0
LINE
8
Základní_vrstva
62
3
10
3070.34157529356
20
3115.76172788641
30
0
11
3070.36167529356
21
3115.53392788641
31
0
0
LINE
8
Základní_vrstva
62
3
10
3070.36167529356
20
3115.53392788641
30
0
11
3070.42197529356
21
3115.32622788641
31
0
0
LINE
8
Základní_vrstva
62
3
10
3070.42197529356
20
3115.32622788641
30
0
11
3070.39517529356
21
3115.10512788641
31
0
0
LINE
8
Základní_vrstva
62
3
10
3070.39517529356
20
3115.10512788641
30
0
11
3070.41527529356
21
3114.87732788641
31
0
0
LINE
8
Základní_vrstva
62
3
10
3070.41527529356
20
3114.87732788641
30
0
11
3070.58277529356
21
3114.70312788641
31
0
0
LINE
8
Základní_vrstva
62
3
10
3070.58277529356
20
3114.70312788641
30
0
11
3070.77707529356
21
3114.56912788641
31
0
0
LINE
8
Základní_vrstva
62
3
10
3070.77707529356
20
3114.56912788641
30
0
11
3070.90437529356
21
3114.38822788641
31
0
0
LINE
8
Základní_vrstva
62
3
10
3070.90437529356
20
3114.38822788641
30
0
11
3071.05177529356
21
3114.23412788641
31
0
0
LINE
8
Základní_vrstva
62
3
10
3071.05177529356
20
3114.23412788641
30
0
11
3071.27957529356
21
3114.21402788641
31
0
0
LINE
8
Základní_vrstva
62
3
10
3071.27957529356
20
3114.21402788641
30
0
11
3071.51407529356
21
3114.23412788641
31
0
0
LINE
8
Základní_vrstva
62
3
10
3071.51407529356
20
3114.23412788641
30
0
11
3071.72847529356
21
3114.17382788641
31
0
0
LINE
8
Základní_vrstva
62
3
10
3071.72847529356
20
3114.17382788641
30
0
11
3071.96297529356
21
3114.15372788641
31
0
0
LINE
8
Základní_vrstva
62
3
10
3071.96297529356
20
3114.15372788641
30
0
11
3072.15057529356
21
3114.28102788641
31
0
0
LINE
8
Základní_vrstva
62
3
10
3072.15057529356
20
3114.28102788641
30
0
11
3072.30467529356
21
3114.44182788641
31
0
0
LINE
8
Základní_vrstva
62
3
10
3072.30467529356
20
3114.44182788641
30
0
11
3072.51237529356
21
3114.53562788641
31
0
0
LINE
8
Základní_vrstva
62
3
10
3072.51237529356
20
3114.53562788641
30
0
11
3072.70667529356
21
3114.67632788641
31
0
0
LINE
8
Základní_vrstva
62
3
10
3072.70667529356
20
3114.67632788641
30
0
11
3072.77367529356
21
3114.90412788641
31
0
0
LINE
8
Základní_vrstva
62
3
10
3072.77367529356
20
3114.90412788641
30
0
11
3072.78707529356
21
3115.13192788641
31
0
0
LINE
8
Základní_vrstva
62
3
10
3072.78707529356
20
3115.13192788641
30
0
11
3072.88087529356
21
3115.34632788641
31
0
0
LINE
8
Základní_vrstva
62
3
10
3072.88087529356
20
3115.34632788641
30
0
11
3072.94117529356
21
3115.54062788641
31
0
0
CIRCLE
8
Základní_vrstva
62
3
10
3071.62127529356
20
3115.43342788641
30
0
40
0.111666666666679
0
LINE
8
Základní_vrstva
62
3
10
3078.78838154356
20
3116.63203413641
30
0
11
3078.70798154356
21
3116.81963413641
31
0
0
LINE
8
Základní_vrstva
62
3
10
3078.70798154356
20
3116.81963413641
30
0
11
3078.57398154356
21
3117.02733413641
31
0
0
LINE
8
Základní_vrstva
62
3
10
3078.57398154356
20
3117.02733413641
30
0
11
3078.51368154356
21
3117.25513413641
31
0
0
LINE
8
Základní_vrstva
62
3
10
3078.51368154356
20
3117.25513413641
30
0
11
3078.41988154356
21
3117.45613413641
31
0
0
LINE
8
Základní_vrstva
62
3
10
3078.41988154356
20
3117.45613413641
30
0
11
3078.20548154356
21
3117.56333413641
31
0
0
LINE
8
Základní_vrstva
62
3
10
3078.20548154356
20
3117.56333413641
30
0
11
3077.98438154356
21
3117.62363413641
31
0
0
LINE
8
Základní_vrstva
62
3
10
3077.98438154356
20
3117.62363413641
30
0
11
3077.80348154356
21
3117.75093413641
31
0
0
LINE
8
Základní_vrstva
62
3
10
3077.80348154356
20
3117.75093413641
30
0
11
3077.59578154356
21
3117.84473413641
31
0
0
LINE
8
Základní_vrstva
62
3
10
3077.59578154356
20
3117.84473413641
30
0
11
3077.37468154356
21
3117.78443413641
31
0
0
LINE
8
Základní_vrstva
62
3
10
3077.37468154356
20
3117.78443413641
30
0
11
3077.18038154356
21
3117.69063413641
31
0
0
LINE
8
Základní_vrstva
62
3
10
3077.18038154356
20
3117.69063413641
30
0
11
3076.95258154356
21
3117.67053413641
31
0
0
LINE
8
Základní_vrstva
62
3
10
3076.95258154356
20
3117.67053413641
30
0
11
3076.72478154356
21
3117.61693413641
31
0
0
LINE
8
Základní_vrstva
62
3
10
3076.72478154356
20
3117.61693413641
30
0
11
3076.58408154356
21
3117.42263413641
31
0
0
LINE
8
Základní_vrstva
62
3
10
3076.58408154356
20
3117.42263413641
30
0
11
3076.48358154356
21
3117.21493413641
31
0
0
LINE
8
Základní_vrstva
62
3
10
3076.48358154356
20
3117.21493413641
30
0
11
3076.32948154356
21
3117.06083413641
31
0
0
LINE
8
Základní_vrstva
62
3
10
3076.32948154356
20
3117.06083413641
30
0
11
3076.19548154356
21
3116.85313413641
31
0
0
LINE
8
Základní_vrstva
62
3
10
3076.19548154356
20
3116.85313413641
30
0
11
3076.21558154356
21
3116.62533413641
31
0
0
LINE
8
Základní_vrstva
62
3
10
3076.21558154356
20
3116.62533413641
30
0
11
3076.27588154356
21
3116.41763413641
31
0
0
LINE
8
Základní_vrstva
62
3
10
3076.27588154356
20
3116.41763413641
30
0
11
3076.24908154356
21
3116.19653413641
31
0
0
LINE
8
Základní_vrstva
62
3
10
3076.24908154356
20
3116.19653413641
30
0
11
3076.26918154356
21
3115.96873413641
31
0
0
LINE
8
Základní_vrstva
62
3
10
3076.26918154356
20
3115.96873413641
30
0
11
3076.43668154356
21
3115.79453413641
31
0
0
LINE
8
Základní_vrstva
62
3
10
3076.43668154356
20
3115.79453413641
30
0
11
3076.63098154356
21
3115.66053413641
31
0
0
LINE
8
Základní_vrstva
62
3
10
3076.63098154356
20
3115.66053413641
30
0
11
3076.75828154356
21
3115.47963413641
31
0
0
LINE
8
Základní_vrstva
62
3
10
3076.75828154356
20
3115.47963413641
30
0
11
3076.90568154356
21
3115.32553413641
31
0
0
LINE
8
Základní_vrstva
62
3
10
3076.90568154356
20
3115.32553413641
30
0
11
3077.13348154356
21
3115.30543413641
31
0
0
LINE
8
Základní_vrstva
62
3
10
3077.13348154356
20
3115.30543413641
30
0
11
3077.36798154356
21
3115.32553413641
31
0
0
LINE
8
Základní_vrstva
62
3
10
3077.36798154356
20
3115.32553413641
30
0
11
3077.58238154356
21
3115.26523413641
31
0
0
LINE
8
Základní_vrstva
62
3
10
3077.58238154356
20
3115.26523413641
30
0
11
3077.81688154356
21
3115.24513413641
31
0
0
LINE
8
Základní_vrstva
62
3
10
3077.81688154356
20
3115.24513413641
30
0
11
3078.00448154356
21
3115.37243413641
31
0
0
LINE
8
Základní_vrstva
62
3
10
3078.00448154356
20
3115.37243413641
30
0
11
3078.15858154356
21
3115.53323413641
31
0
0
LINE
8
Základní_vrstva
62
3
10
3078.15858154356
20
3115.53323413641
30
0
11
3078.36628154356
21
3115.62703413641
31
0
0
LINE
8
Základní_vrstva
62
3
10
3078.36628154356
20
3115.62703413641
30
0
11
3078.56058154356
21
3115.76773413641
31
0
0
LINE
8
Základní_vrstva
62
3
10
3078.56058154356
20
3115.76773413641
30
0
11
3078.62758154356
21
3115.99553413641
31
0
0
LINE
8
Základní_vrstva
62
3
10
3078.62758154356
20
3115.99553413641
30
0
11
3078.64098154356
21
3116.22333413641
31
0
0
LINE
8
Základní_vrstva
62
3
10
3078.64098154356
20
3116.22333413641
30
0
11
3078.73478154356
21
3116.43773413641
31
0
0
LINE
8
Základní_vrstva
62
3
10
3078.73478154356
20
3116.43773413641
30
0
11
3078.79508154356
21
3116.63203413641
31
0
0
CIRCLE
8
Základní_vrstva
62
3
10
3077.47518154356
20
3116.52483413641
30
0
40
0.111666666666679
0
LINE
8
Základní_vrstva
62
3
10
3084.74150654356
20
3117.82265913641
30
0
11
3084.66110654356
21
3118.01025913641
31
0
0
LINE
8
Základní_vrstva
62
3
10
3084.66110654356
20
3118.01025913641
30
0
11
3084.52710654356
21
3118.21795913641
31
0
0
LINE
8
Základní_vrstva
62
3
10
3084.52710654356
20
3118.21795913641
30
0
11
3084.46680654356
21
3118.44575913641
31
0
0
LINE
8
Základní_vrstva
62
3
10
3084.46680654356
20
3118.44575913641
30
0
11
3084.37300654356
21
3118.64675913641
31
0
0
LINE
8
Základní_vrstva
62
3
10
3084.37300654356
20
3118.64675913641
30
0
11
3084.15860654356
21
3118.75395913641
31
0
0
LINE
8
Základní_vrstva
62
3
10
3084.15860654356
20
3118.75395913641
30
0
11
3083.93750654356
21
3118.81425913641
31
0
0
LINE
8
Základní_vrstva
62
3
10
3083.93750654356
20
3118.81425913641
30
0
11
3083.75660654356
21
3118.94155913641
31
0
0
LINE
8
Základní_vrstva
62
3
10
3083.75660654356
20
3118.94155913641
30
0
11
3083.54890654356
21
3119.03535913641
31
0
0
LINE
8
Základní_vrstva
62
3
10
3083.54890654356
20
3119.03535913641
30
0
11
3083.32780654356
21
3118.97505913641
31
0
0
LINE
8
Základní_vrstva
62
3
10
3083.32780654356
20
3118.97505913641
30
0
11
3083.13350654356
21
3118.88125913641
31
0
0
LINE
8
Základní_vrstva
62
3
10
3083.13350654356
20
3118.88125913641
30
0
11
3082.90570654356
21
3118.86115913641
31
0
0
LINE
8
Základní_vrstva
62
3
10
3082.90570654356
20
3118.86115913641
30
0
11
3082.67790654356
21
3118.80755913641
31
0
0
LINE
8
Základní_vrstva
62
3
10
3082.67790654356
20
3118.80755913641
30
0
11
3082.53720654356
21
3118.61325913641
31
0
0
LINE
8
Základní_vrstva
62
3
10
3082.53720654356
20
3118.61325913641
30
0
11
3082.43670654356
21
3118.40555913641
31
0
0
LINE
8
Základní_vrstva
62
3
10
3082.43670654356
20
3118.40555913641
30
0
11
3082.28260654356
21
3118.25145913641
31
0
0
LINE
8
Základní_vrstva
62
3
10
3082.28260654356
20
3118.25145913641
30
0
11
3082.14860654356
21
3118.04375913641
31
0
0
LINE
8
Základní_vrstva
62
3
10
3082.14860654356
20
3118.04375913641
30
0
11
3082.16870654356
21
3117.81595913641
31
0
0
LINE
8
Základní_vrstva
62
3
10
3082.16870654356
20
3117.81595913641
30
0
11
3082.22900654356
21
3117.60825913641
31
0
0
LINE
8
Základní_vrstva
62
3
10
3082.22900654356
20
3117.60825913641
30
0
11
3082.20220654356
21
3117.38715913641
31
0
0
LINE
8
Základní_vrstva
62
3
10
3082.20220654356
20
3117.38715913641
30
0
11
3082.22230654356
21
3117.15935913641
31
0
0
LINE
8
Základní_vrstva
62
3
10
3082.22230654356
20
3117.15935913641
30
0
11
3082.38980654356
21
3116.98515913641
31
0
0
LINE
8
Základní_vrstva
62
3
10
3082.38980654356
20
3116.98515913641
30
0
11
3082.58410654356
21
3116.85115913641
31
0
0
LINE
8
Základní_vrstva
62
3
10
3082.58410654356
20
3116.85115913641
30
0
11
3082.71140654356
21
3116.67025913641
31
0
0
LINE
8
Základní_vrstva
62
3
10
3082.71140654356
20
3116.67025913641
30
0
11
3082.85880654356
21
3116.51615913641
31
0
0
LINE
8
Základní_vrstva
62
3
10
3082.85880654356
20
3116.51615913641
30
0
11
3083.08660654356
21
3116.49605913641
31
0
0
LINE
8
Základní_vrstva
62
3
10
3083.08660654356
20
3116.49605913641
30
0
11
3083.32110654356
21
3116.51615913641
31
0
0
LINE
8
Základní_vrstva
62
3
10
3083.32110654356
20
3116.51615913641
30
0
11
3083.53550654356
21
3116.45585913641
31
0
0
LINE
8
Základní_vrstva
62
3
10
3083.53550654356
20
3116.45585913641
30
0
11
3083.77000654356
21
3116.43575913641
31
0
0
LINE
8
Základní_vrstva
62
3
10
3083.77000654356
20
3116.43575913641
30
0
11
3083.95760654356
21
3116.56305913641
31
0
0
LINE
8
Základní_vrstva
62
3
10
3083.95760654356
20
3116.56305913641
30
0
11
3084.11170654356
21
3116.72385913641
31
0
0
LINE
8
Základní_vrstva
62
3
10
3084.11170654356
20
3116.72385913641
30
0
11
3084.31940654356
21
3116.81765913641
31
0
0
LINE
8
Základní_vrstva
62
3
10
3084.31940654356
20
3116.81765913641
30
0
11
3084.51370654356
21
3116.95835913641
31
0
0
LINE
8
Základní_vrstva
62
3
10
3084.51370654356
20
3116.95835913641
30
0
11
3084.58070654356
21
3117.18615913641
31
0
0
LINE
8
Základní_vrstva
62
3
10
3084.58070654356
20
3117.18615913641
30
0
11
3084.59410654356
21
3117.41395913641
31
0
0
LINE
8
Základní_vrstva
62
3
10
3084.59410654356
20
3117.41395913641
30
0
11
3084.68790654356
21
3117.62835913641
31
0
0
LINE
8
Základní_vrstva
62
3
10
3084.68790654356
20
3117.62835913641
30
0
11
3084.74820654356
21
3117.82265913641
31
0
0
CIRCLE
8
Základní_vrstva
62
3
10
3083.42830654356
20
3117.71545913641
30
0
40
0.111666666666679
0
LINE
8
Základní_vrstva
62
3
10
3090.69463154356
20
3119.21172163641
30
0
11
3090.61423154356
21
3119.39932163641
31
0
0
LINE
8
Základní_vrstva
62
3
10
3090.61423154356
20
3119.39932163641
30
0
11
3090.48023154356
21
3119.60702163641
31
0
0
LINE
8
Základní_vrstva
62
3
10
3090.48023154356
20
3119.60702163641
30
0
11
3090.41993154356
21
3119.83482163641
31
0
0
LINE
8
Základní_vrstva
62
3
10
3090.41993154356
20
3119.83482163641
30
0
11
3090.32613154356
21
3120.03582163641
31
0
0
LINE
8
Základní_vrstva
62
3
10
3090.32613154356
20
3120.03582163641
30
0
11
3090.11173154356
21
3120.14302163641
31
0
0
LINE
8
Základní_vrstva
62
3
10
3090.11173154356
20
3120.14302163641
30
0
11
3089.89063154356
21
3120.20332163641
31
0
0
LINE
8
Základní_vrstva
62
3
10
3089.89063154356
20
3120.20332163641
30
0
11
3089.70973154356
21
3120.33062163641
31
0
0
LINE
8
Základní_vrstva
62
3
10
3089.70973154356
20
3120.33062163641
30
0
11
3089.50203154356
21
3120.42442163641
31
0
0
LINE
8
Základní_vrstva
62
3
10
3089.50203154356
20
3120.42442163641
30
0
11
3089.28093154356
21
3120.36412163641
31
0
0
LINE
8
Základní_vrstva
62
3
10
3089.28093154356
20
3120.36412163641
30
0
11
3089.08663154356
21
3120.27032163641
31
0
0
LINE
8
Základní_vrstva
62
3
10
3089.08663154356
20
3120.27032163641
30
0
11
3088.85883154356
21
3120.25022163641
31
0
0
LINE
8
Základní_vrstva
62
3
10
3088.85883154356
20
3120.25022163641
30
0
11
3088.63103154356
21
3120.19662163641
31
0
0
LINE
8
Základní_vrstva
62
3
10
3088.63103154356
20
3120.19662163641
30
0
11
3088.49033154356
21
3120.00232163641
31
0
0
LINE
8
Základní_vrstva
62
3
10
3088.49033154356
20
3120.00232163641
30
0
11
3088.38983154356
21
3119.79462163641
31
0
0
LINE
8
Základní_vrstva
62
3
10
3088.38983154356
20
3119.79462163641
30
0
11
3088.23573154356
21
3119.64052163641
31
0
0
LINE
8
Základní_vrstva
62
3
10
3088.23573154356
20
3119.64052163641
30
0
11
3088.10173154356
21
3119.43282163641
31
0
0
LINE
8
Základní_vrstva
62
3
10
3088.10173154356
20
3119.43282163641
30
0
11
3088.12183154356
21
3119.20502163641
31
0
0
LINE
8
Základní_vrstva
62
3
10
3088.12183154356
20
3119.20502163641
30
0
11
3088.18213154356
21
3118.99732163641
31
0
0
LINE
8
Základní_vrstva
62
3
10
3088.18213154356
20
3118.99732163641
30
0
11
3088.15533154356
21
3118.77622163641
31
0
0
LINE
8
Základní_vrstva
62
3
10
3088.15533154356
20
3118.77622163641
30
0
11
3088.17543154356
21
3118.54842163641
31
0
0
LINE
8
Základní_vrstva
62
3
10
3088.17543154356
20
3118.54842163641
30
0
11
3088.34293154356
21
3118.37422163641
31
0
0
LINE
8
Základní_vrstva
62
3
10
3088.34293154356
20
3118.37422163641
30
0
11
3088.53723154356
21
3118.24022163641
31
0
0
LINE
8
Základní_vrstva
62
3
10
3088.53723154356
20
3118.24022163641
30
0
11
3088.66453154356
21
3118.05932163641
31
0
0
LINE
8
Základní_vrstva
62
3
10
3088.66453154356
20
3118.05932163641
30
0
11
3088.81193154356
21
3117.90522163641
31
0
0
LINE
8
Základní_vrstva
62
3
10
3088.81193154356
20
3117.90522163641
30
0
11
3089.03973154356
21
3117.88512163641
31
0
0
LINE
8
Základní_vrstva
62
3
10
3089.03973154356
20
3117.88512163641
30
0
11
3089.27423154356
21
3117.90522163641
31
0
0
LINE
8
Základní_vrstva
62
3
10
3089.27423154356
20
3117.90522163641
30
0
11
3089.48863154356
21
3117.84492163641
31
0
0
LINE
8
Základní_vrstva
62
3
10
3089.48863154356
20
3117.84492163641
30
0
11
3089.72313154356
21
3117.82482163641
31
0
0
LINE
8
Základní_vrstva
62
3
10
3089.72313154356
20
3117.82482163641
30
0
11
3089.91073154356
21
3117.95212163641
31
0
0
LINE
8
Základní_vrstva
62
3
10
3089.91073154356
20
3117.95212163641
30
0
11
3090.06483154356
21
3118.11292163641
31
0
0
LINE
8
Základní_vrstva
62
3
10
3090.06483154356
20
3118.11292163641
30
0
11
3090.27253154356
21
3118.20672163641
31
0
0
LINE
8
Základní_vrstva
62
3
10
3090.27253154356
20
3118.20672163641
30
0
11
3090.46683154356
21
3118.34742163641
31
0
0
LINE
8
Základní_vrstva
62
3
10
3090.46683154356
20
3118.34742163641
30
0
11
3090.53383154356
21
3118.57522163641
31
0
0
LINE
8
Základní_vrstva
62
3
10
3090.53383154356
20
3118.57522163641
30
0
11
3090.54723154356
21
3118.80302163641
31
0
0
LINE
8
Základní_vrstva
62
3
10
3090.54723154356
20
3118.80302163641
30
0
11
3090.64103154356
21
3119.01742163641
31
0
0
LINE
8
Základní_vrstva
62
3
10
3090.64103154356
20
3119.01742163641
30
0
11
3090.70133154356
21
3119.21172163641
31
0
0
CIRCLE
8
Základní_vrstva
62
3
10
3089.38143154356
20
3119.10452163641
30
0
40
0.111666666666679
0
LINE
8
Základní_vrstva
62
3
10
3096.35010029356
20
3120.40234663641
30
0
11
3096.26970029356
21
3120.58994663641
31
0
0
LINE
8
Základní_vrstva
62
3
10
3096.26970029356
20
3120.58994663641
30
0
11
3096.13570029356
21
3120.79764663641
31
0
0
LINE
8
Základní_vrstva
62
3
10
3096.13570029356
20
3120.79764663641
30
0
11
3096.07540029356
21
3121.02544663641
31
0
0
LINE
8
Základní_vrstva
62
3
10
3096.07540029356
20
3121.02544663641
30
0
11
3095.98160029356
21
3121.22644663641
31
0
0
LINE
8
Základní_vrstva
62
3
10
3095.98160029356
20
3121.22644663641
30
0
11
3095.76720029356
21
3121.33364663641
31
0
0
LINE
8
Základní_vrstva
62
3
10
3095.76720029356
20
3121.33364663641
30
0
11
3095.54610029356
21
3121.39394663641
31
0
0
LINE
8
Základní_vrstva
62
3
10
3095.54610029356
20
3121.39394663641
30
0
11
3095.36520029356
21
3121.52124663641
31
0
0
LINE
8
Základní_vrstva
62
3
10
3095.36520029356
20
3121.52124663641
30
0
11
3095.15750029356
21
3121.61504663641
31
0
0
LINE
8
Základní_vrstva
62
3
10
3095.15750029356
20
3121.61504663641
30
0
11
3094.93640029356
21
3121.55474663641
31
0
0
LINE
8
Základní_vrstva
62
3
10
3094.93640029356
20
3121.55474663641
30
0
11
3094.74210029356
21
3121.46094663641
31
0
0
LINE
8
Základní_vrstva
62
3
10
3094.74210029356
20
3121.46094663641
30
0
11
3094.51430029356
21
3121.44084663641
31
0
0
LINE
8
Základní_vrstva
62
3
10
3094.51430029356
20
3121.44084663641
30
0
11
3094.28650029356
21
3121.38724663641
31
0
0
LINE
8
Základní_vrstva
62
3
10
3094.28650029356
20
3121.38724663641
30
0
11
3094.14580029356
21
3121.19294663641
31
0
0
LINE
8
Základní_vrstva
62
3
10
3094.14580029356
20
3121.19294663641
30
0
11
3094.04530029356
21
3120.98524663641
31
0
0
LINE
8
Základní_vrstva
62
3
10
3094.04530029356
20
3120.98524663641
30
0
11
3093.89120029356
21
3120.83114663641
31
0
0
LINE
8
Základní_vrstva
62
3
10
3093.89120029356
20
3120.83114663641
30
0
11
3093.75720029356
21
3120.62344663641
31
0
0
LINE
8
Základní_vrstva
62
3
10
3093.75720029356
20
3120.62344663641
30
0
11
3093.77730029356
21
3120.39564663641
31
0
0
LINE
8
Základní_vrstva
62
3
10
3093.77730029356
20
3120.39564663641
30
0
11
3093.83760029356
21
3120.18794663641
31
0
0
LINE
8
Základní_vrstva
62
3
10
3093.83760029356
20
3120.18794663641
30
0
11
3093.81080029356
21
3119.96684663641
31
0
0
LINE
8
Základní_vrstva
62
3
10
3093.81080029356
20
3119.96684663641
30
0
11
3093.83090029356
21
3119.73904663641
31
0
0
LINE
8
Základní_vrstva
62
3
10
3093.83090029356
20
3119.73904663641
30
0
11
3093.99840029356
21
3119.56484663641
31
0
0
LINE
8
Základní_vrstva
62
3
10
3093.99840029356
20
3119.56484663641
30
0
11
3094.19270029356
21
3119.43084663641
31
0
0
LINE
8
Základní_vrstva
62
3
10
3094.19270029356
20
3119.43084663641
30
0
11
3094.32000029356
21
3119.24994663641
31
0
0
LINE
8
Základní_vrstva
62
3
10
3094.32000029356
20
3119.24994663641
30
0
11
3094.46740029356
21
3119.09584663641
31
0
0
LINE
8
Základní_vrstva
62
3
10
3094.46740029356
20
3119.09584663641
30
0
11
3094.69520029356
21
3119.07574663641
31
0
0
LINE
8
Základní_vrstva
62
3
10
3094.69520029356
20
3119.07574663641
30
0
11
3094.92970029356
21
3119.09584663641
31
0
0
LINE
8
Základní_vrstva
62
3
10
3094.92970029356
20
3119.09584663641
30
0
11
3095.14410029356
21
3119.03554663641
31
0
0
LINE
8
Základní_vrstva
62
3
10
3095.14410029356
20
3119.03554663641
30
0
11
3095.37860029356
21
3119.01544663641
31
0
0
LINE
8
Základní_vrstva
62
3
10
3095.37860029356
20
3119.01544663641
30
0
11
3095.56620029356
21
3119.14274663641
31
0
0
LINE
8
Základní_vrstva
62
3
10
3095.56620029356
20
3119.14274663641
30
0
11
3095.72030029356
21
3119.30354663641
31
0
0
LINE
8
Základní_vrstva
62
3
10
3095.72030029356
20
3119.30354663641
30
0
11
3095.92800029356
21
3119.39734663641
31
0
0
LINE
8
Základní_vrstva
62
3
10
3095.92800029356
20
3119.39734663641
30
0
11
3096.12230029356
21
3119.53804663641
31
0
0
LINE
8
Základní_vrstva
62
3
10
3096.12230029356
20
3119.53804663641
30
0
11
3096.18930029356
21
3119.76584663641
31
0
0
LINE
8
Základní_vrstva
62
3
10
3096.18930029356
20
3119.76584663641
30
0
11
3096.20270029356
21
3119.99364663641
31
0
0
LINE
8
Základní_vrstva
62
3
10
3096.20270029356
20
3119.99364663641
30
0
11
3096.29650029356
21
3120.20804663641
31
0
0
LINE
8
Základní_vrstva
62
3
10
3096.29650029356
20
3120.20804663641
30
0
11
3096.35680029356
21
3120.40234663641
31
0
0
CIRCLE
8
Základní_vrstva
62
3
10
3095.03690029356
20
3120.29514663641
30
0
40
0.111666666666679
0
LINE
8
Základní_vrstva
62
3
10
3101.21181904356
20
3121.49375288641
30
0
11
3101.13141904356
21
3121.68135288641
31
0
0
LINE
8
Základní_vrstva
62
3
10
3101.13141904356
20
3121.68135288641
30
0
11
3100.99741904356
21
3121.88905288641
31
0
0
LINE
8
Základní_vrstva
62
3
10
3100.99741904356
20
3121.88905288641
30
0
11
3100.93711904356
21
3122.11685288641
31
0
0
LINE
8
Základní_vrstva
62
3
10
3100.93711904356
20
3122.11685288641
30
0
11
3100.84331904356
21
3122.31785288641
31
0
0
LINE
8
Základní_vrstva
62
3
10
3100.84331904356
20
3122.31785288641
30
0
11
3100.62891904356
21
3122.42505288641
31
0
0
LINE
8
Základní_vrstva
62
3
10
3100.62891904356
20
3122.42505288641
30
0
11
3100.40781904356
21
3122.48535288641
31
0
0
LINE
8
Základní_vrstva
62
3
10
3100.40781904356
20
3122.48535288641
30
0
11
3100.22691904356
21
3122.61265288641
31
0
0
LINE
8
Základní_vrstva
62
3
10
3100.22691904356
20
3122.61265288641
30
0
11
3100.01921904356
21
3122.70645288641
31
0
0
LINE
8
Základní_vrstva
62
3
10
3100.01921904356
20
3122.70645288641
30
0
11
3099.79811904356
21
3122.64615288641
31
0
0
LINE
8
Základní_vrstva
62
3
10
3099.79811904356
20
3122.64615288641
30
0
11
3099.60381904356
21
3122.55235288641
31
0
0
LINE
8
Základní_vrstva
62
3
10
3099.60381904356
20
3122.55235288641
30
0
11
3099.37601904356
21
3122.53225288641
31
0
0
LINE
8
Základní_vrstva
62
3
10
3099.37601904356
20
3122.53225288641
30
0
11
3099.14821904356
21
3122.47865288641
31
0
0
LINE
8
Základní_vrstva
62
3
10
3099.14821904356
20
3122.47865288641
30
0
11
3099.00751904356
21
3122.28435288641
31
0
0
LINE
8
Základní_vrstva
62
3
10
3099.00751904356
20
3122.28435288641
30
0
11
3098.90701904356
21
3122.07665288641
31
0
0
LINE
8
Základní_vrstva
62
3
10
3098.90701904356
20
3122.07665288641
30
0
11
3098.75291904356
21
3121.92255288641
31
0
0
LINE
8
Základní_vrstva
62
3
10
3098.75291904356
20
3121.92255288641
30
0
11
3098.61891904356
21
3121.71485288641
31
0
0
LINE
8
Základní_vrstva
62
3
10
3098.61891904356
20
3121.71485288641
30
0
11
3098.63901904356
21
3121.48705288641
31
0
0
LINE
8
Základní_vrstva
62
3
10
3098.63901904356
20
3121.48705288641
30
0
11
3098.69931904356
21
3121.27935288641
31
0
0
LINE
8
Základní_vrstva
62
3
10
3098.69931904356
20
3121.27935288641
30
0
11
3098.67251904356
21
3121.05825288641
31
0
0
LINE
8
Základní_vrstva
62
3
10
3098.67251904356
20
3121.05825288641
30
0
11
3098.69261904356
21
3120.83045288641
31
0
0
LINE
8
Základní_vrstva
62
3
10
3098.69261904356
20
3120.83045288641
30
0
11
3098.86011904356
21
3120.65625288641
31
0
0
LINE
8
Základní_vrstva
62
3
10
3098.86011904356
20
3120.65625288641
30
0
11
3099.05441904356
21
3120.52225288641
31
0
0
LINE
8
Základní_vrstva
62
3
10
3099.05441904356
20
3120.52225288641
30
0
11
3099.18171904356
21
3120.34135288641
31
0
0
LINE
8
Základní_vrstva
62
3
10
3099.18171904356
20
3120.34135288641
30
0
11
3099.32911904356
21
3120.18725288641
31
0
0
LINE
8
Základní_vrstva
62
3
10
3099.32911904356
20
3120.18725288641
30
0
11
3099.55691904356
21
3120.16715288641
31
0
0
LINE
8
Základní_vrstva
62
3
10
3099.55691904356
20
3120.16715288641
30
0
11
3099.79141904356
21
3120.18725288641
31
0
0
LINE
8
Základní_vrstva
62
3
10
3099.79141904356
20
3120.18725288641
30
0
11
3100.00581904356
21
3120.12695288641
31
0
0
LINE
8
Základní_vrstva
62
3
10
3100.00581904356
20
3120.12695288641
30
0
11
3100.24031904356
21
3120.10685288641
31
0
0
LINE
8
Základní_vrstva
62
3
10
3100.24031904356
20
3120.10685288641
30
0
11
3100.42791904356
21
3120.23415288641
31
0
0
LINE
8
Základní_vrstva
62
3
10
3100.42791904356
20
3120.23415288641
30
0
11
3100.58201904356
21
3120.39495288641
31
0
0
LINE
8
Základní_vrstva
62
3
10
3100.58201904356
20
3120.39495288641
30
0
11
3100.78971904356
21
3120.48875288641
31
0
0
LINE
8
Základní_vrstva
62
3
10
3100.78971904356
20
3120.48875288641
30
0
11
3100.98401904356
21
3120.62945288641
31
0
0
LINE
8
Základní_vrstva
62
3
10
3100.98401904356
20
3120.62945288641
30
0
11
3101.05101904356
21
3120.85725288641
31
0
0
LINE
8
Základní_vrstva
62
3
10
3101.05101904356
20
3120.85725288641
30
0
11
3101.06441904356
21
3121.08505288641
31
0
0
LINE
8
Základní_vrstva
62
3
10
3101.06441904356
20
3121.08505288641
30
0
11
3101.15821904356
21
3121.29945288641
31
0
0
LINE
8
Základní_vrstva
62
3
10
3101.15821904356
20
3121.29945288641
30
0
11
3101.21851904356
21
3121.49375288641
31
0
0
CIRCLE
8
Základní_vrstva
62
3
10
3099.89861904356
20
3121.38655288641
30
0
40
0.111666666666679
0
LINE
8
Základní_vrstva
62
3
10
3106.07353779356
20
3122.38672163641
30
0
11
3105.99313779356
21
3122.57432163641
31
0
0
LINE
8
Základní_vrstva
62
3
10
3105.99313779356
20
3122.57432163641
30
0
11
3105.85913779356
21
3122.78202163641
31
0
0
LINE
8
Základní_vrstva
62
3
10
3105.85913779356
20
3122.78202163641
30
0
11
3105.79883779356
21
3123.00982163641
31
0
0
LINE
8
Základní_vrstva
62
3
10
3105.79883779356
20
3123.00982163641
30
0
11
3105.70503779356
21
3123.21082163641
31
0
0
LINE
8
Základní_vrstva
62
3
10
3105.70503779356
20
3123.21082163641
30
0
11
3105.49063779356
21
3123.31802163641
31
0
0
LINE
8
Základní_vrstva
62
3
10
3105.49063779356
20
3123.31802163641
30
0
11
3105.26953779356
21
3123.37832163641
31
0
0
LINE
8
Základní_vrstva
62
3
10
3105.26953779356
20
3123.37832163641
30
0
11
3105.08863779356
21
3123.50562163641
31
0
0
LINE
8
Základní_vrstva
62
3
10
3105.08863779356
20
3123.50562163641
30
0
11
3104.88093779356
21
3123.59942163641
31
0
0
LINE
8
Základní_vrstva
62
3
10
3104.88093779356
20
3123.59942163641
30
0
11
3104.65983779356
21
3123.53912163641
31
0
0
LINE
8
Základní_vrstva
62
3
10
3104.65983779356
20
3123.53912163641
30
0
11
3104.46553779356
21
3123.44532163641
31
0
0
LINE
8
Základní_vrstva
62
3
10
3104.46553779356
20
3123.44532163641
30
0
11
3104.23773779356
21
3123.42522163641
31
0
0
LINE
8
Základní_vrstva
62
3
10
3104.23773779356
20
3123.42522163641
30
0
11
3104.00993779356
21
3123.37162163641
31
0
0
LINE
8
Základní_vrstva
62
3
10
3104.00993779356
20
3123.37162163641
30
0
11
3103.86923779356
21
3123.17732163641
31
0
0
LINE
8
Základní_vrstva
62
3
10
3103.86923779356
20
3123.17732163641
30
0
11
3103.76873779356
21
3122.96962163641
31
0
0
LINE
8
Základní_vrstva
62
3
10
3103.76873779356
20
3122.96962163641
30
0
11
3103.61463779356
21
3122.81552163641
31
0
0
LINE
8
Základní_vrstva
62
3
10
3103.61463779356
20
3122.81552163641
30
0
11
3103.48063779356
21
3122.60782163641
31
0
0
LINE
8
Základní_vrstva
62
3
10
3103.48063779356
20
3122.60782163641
30
0
11
3103.50073779356
21
3122.38002163641
31
0
0
LINE
8
Základní_vrstva
62
3
10
3103.50073779356
20
3122.38002163641
30
0
11
3103.56103779356
21
3122.17232163641
31
0
0
LINE
8
Základní_vrstva
62
3
10
3103.56103779356
20
3122.17232163641
30
0
11
3103.53423779356
21
3121.95122163641
31
0
0
LINE
8
Základní_vrstva
62
3
10
3103.53423779356
20
3121.95122163641
30
0
11
3103.55433779356
21
3121.72342163641
31
0
0
LINE
8
Základní_vrstva
62
3
10
3103.55433779356
20
3121.72342163641
30
0
11
3103.72183779356
21
3121.54922163641
31
0
0
LINE
8
Základní_vrstva
62
3
10
3103.72183779356
20
3121.54922163641
30
0
11
3103.91613779356
21
3121.41522163641
31
0
0
LINE
8
Základní_vrstva
62
3
10
3103.91613779356
20
3121.41522163641
30
0
11
3104.04343779356
21
3121.23432163641
31
0
0
LINE
8
Základní_vrstva
62
3
10
3104.04343779356
20
3121.23432163641
30
0
11
3104.19083779356
21
3121.08022163641
31
0
0
LINE
8
Základní_vrstva
62
3
10
3104.19083779356
20
3121.08022163641
30
0
11
3104.41863779356
21
3121.06012163641
31
0
0
LINE
8
Základní_vrstva
62
3
10
3104.41863779356
20
3121.06012163641
30
0
11
3104.65313779356
21
3121.08022163641
31
0
0
LINE
8
Základní_vrstva
62
3
10
3104.65313779356
20
3121.08022163641
30
0
11
3104.86753779356
21
3121.01992163641
31
0
0
LINE
8
Základní_vrstva
62
3
10
3104.86753779356
20
3121.01992163641
30
0
11
3105.10203779356
21
3120.99982163641
31
0
0
LINE
8
Základní_vrstva
62
3
10
3105.10203779356
20
3120.99982163641
30
0
11
3105.28963779356
21
3121.12712163641
31
0
0
LINE
8
Základní_vrstva
62
3
10
3105.28963779356
20
3121.12712163641
30
0
11
3105.44373779356
21
3121.28792163641
31
0
0
LINE
8
Základní_vrstva
62
3
10
3105.44373779356
20
3121.28792163641
30
0
11
3105.65143779356
21
3121.38172163641
31
0
0
LINE
8
Základní_vrstva
62
3
10
3105.65143779356
20
3121.38172163641
30
0
11
3105.84573779356
21
3121.52242163641
31
0
0
LINE
8
Základní_vrstva
62
3
10
3105.84573779356
20
3121.52242163641
30
0
11
3105.91273779356
21
3121.75022163641
31
0
0
LINE
8
Základní_vrstva
62
3
10
3105.91273779356
20
3121.75022163641
30
0
11
3105.92613779356
21
3121.97802163641
31
0
0
LINE
8
Základní_vrstva
62
3
10
3105.92613779356
20
3121.97802163641
30
0
11
3106.01993779356
21
3122.19242163641
31
0
0
LINE
8
Základní_vrstva
62
3
10
3106.01993779356
20
3122.19242163641
30
0
11
3106.08023779356
21
3122.38672163641
31
0
0
CIRCLE
8
Základní_vrstva
62
3
10
3104.76033779356
20
3122.27952163641
30
0
40
0.111666666666679
0
LINE
8
Základní_vrstva
62
3
10
3111.43135029356
20
3123.57734663641
30
0
11
3111.35095029356
21
3123.76494663641
31
0
0
LINE
8
Základní_vrstva
62
3
10
3111.35095029356
20
3123.76494663641
30
0
11
3111.21695029356
21
3123.97264663641
31
0
0
LINE
8
Základní_vrstva
62
3
10
3111.21695029356
20
3123.97264663641
30
0
11
3111.15665029356
21
3124.20044663641
31
0
0
LINE
8
Základní_vrstva
62
3
10
3111.15665029356
20
3124.20044663641
30
0
11
3111.06285029356
21
3124.40144663641
31
0
0
LINE
8
Základní_vrstva
62
3
10
3111.06285029356
20
3124.40144663641
30
0
11
3110.84845029356
21
3124.50864663641
31
0
0
LINE
8
Základní_vrstva
62
3
10
3110.84845029356
20
3124.50864663641
30
0
11
3110.62735029356
21
3124.56894663641
31
0
0
LINE
8
Základní_vrstva
62
3
10
3110.62735029356
20
3124.56894663641
30
0
11
3110.44645029356
21
3124.69624663641
31
0
0
LINE
8
Základní_vrstva
62
3
10
3110.44645029356
20
3124.69624663641
30
0
11
3110.23875029356
21
3124.79004663641
31
0
0
LINE
8
Základní_vrstva
62
3
10
3110.23875029356
20
3124.79004663641
30
0
11
3110.01765029356
21
3124.72974663641
31
0
0
LINE
8
Základní_vrstva
62
3
10
3110.01765029356
20
3124.72974663641
30
0
11
3109.82335029356
21
3124.63594663641
31
0
0
LINE
8
Základní_vrstva
62
3
10
3109.82335029356
20
3124.63594663641
30
0
11
3109.59555029356
21
3124.61584663641
31
0
0
LINE
8
Základní_vrstva
62
3
10
3109.59555029356
20
3124.61584663641
30
0
11
3109.36775029356
21
3124.56224663641
31
0
0
LINE
8
Základní_vrstva
62
3
10
3109.36775029356
20
3124.56224663641
30
0
11
3109.22705029356
21
3124.36794663641
31
0
0
LINE
8
Základní_vrstva
62
3
10
3109.22705029356
20
3124.36794663641
30
0
11
3109.12655029356
21
3124.16024663641
31
0
0
LINE
8
Základní_vrstva
62
3
10
3109.12655029356
20
3124.16024663641
30
0
11
3108.97245029356
21
3124.00614663641
31
0
0
LINE
8
Základní_vrstva
62
3
10
3108.97245029356
20
3124.00614663641
30
0
11
3108.83845029356
21
3123.79844663641
31
0
0
LINE
8
Základní_vrstva
62
3
10
3108.83845029356
20
3123.79844663641
30
0
11
3108.85855029356
21
3123.57064663641
31
0
0
LINE
8
Základní_vrstva
62
3
10
3108.85855029356
20
3123.57064663641
30
0
11
3108.91885029356
21
3123.36294663641
31
0
0
LINE
8
Základní_vrstva
62
3
10
3108.91885029356
20
3123.36294663641
30
0
11
3108.89205029356
21
3123.14184663641
31
0
0
LINE
8
Základní_vrstva
62
3
10
3108.89205029356
20
3123.14184663641
30
0
11
3108.91215029356
21
3122.91404663641
31
0
0
LINE
8
Základní_vrstva
62
3
10
3108.91215029356
20
3122.91404663641
30
0
11
3109.07965029356
21
3122.73984663641
31
0
0
LINE
8
Základní_vrstva
62
3
10
3109.07965029356
20
3122.73984663641
30
0
11
3109.27395029356
21
3122.60584663641
31
0
0
LINE
8
Základní_vrstva
62
3
10
3109.27395029356
20
3122.60584663641
30
0
11
3109.40125029356
21
3122.42494663641
31
0
0
LINE
8
Základní_vrstva
62
3
10
3109.40125029356
20
3122.42494663641
30
0
11
3109.54865029356
21
3122.27084663641
31
0
0
LINE
8
Základní_vrstva
62
3
10
3109.54865029356
20
3122.27084663641
30
0
11
3109.77645029356
21
3122.25074663641
31
0
0
LINE
8
Základní_vrstva
62
3
10
3109.77645029356
20
3122.25074663641
30
0
11
3110.01095029356
21
3122.27084663641
31
0
0
LINE
8
Základní_vrstva
62
3
10
3110.01095029356
20
3122.27084663641
30
0
11
3110.22535029356
21
3122.21054663641
31
0
0
LINE
8
Základní_vrstva
62
3
10
3110.22535029356
20
3122.21054663641
30
0
11
3110.45985029356
21
3122.19044663641
31
0
0
LINE
8
Základní_vrstva
62
3
10
3110.45985029356
20
3122.19044663641
30
0
11
3110.64745029356
21
3122.31774663641
31
0
0
LINE
8
Základní_vrstva
62
3
10
3110.64745029356
20
3122.31774663641
30
0
11
3110.80155029356
21
3122.47854663641
31
0
0
LINE
8
Základní_vrstva
62
3
10
3110.80155029356
20
3122.47854663641
30
0
11
3111.00925029356
21
3122.57234663641
31
0
0
LINE
8
Základní_vrstva
62
3
10
3111.00925029356
20
3122.57234663641
30
0
11
3111.20355029356
21
3122.71304663641
31
0
0
LINE
8
Základní_vrstva
62
3
10
3111.20355029356
20
3122.71304663641
30
0
11
3111.27055029356
21
3122.94084663641
31
0
0
LINE
8
Základní_vrstva
62
3
10
3111.27055029356
20
3122.94084663641
30
0
11
3111.28395029356
21
3123.16864663641
31
0
0
LINE
8
Základní_vrstva
62
3
10
3111.28395029356
20
3123.16864663641
30
0
11
3111.37775029356
21
3123.38304663641
31
0
0
LINE
8
Základní_vrstva
62
3
10
3111.37775029356
20
3123.38304663641
30
0
11
3111.43805029356
21
3123.57734663641
31
0
0
CIRCLE
8
Základní_vrstva
62
3
10
3110.11815029356
20
3123.47014663641
30
0
40
0.111666666666679
0
LINE
8
Základní_vrstva
62
3
10
3116.49150654356
20
3123.57734663641
30
0
11
3116.41110654356
21
3123.76494663641
31
0
0
LINE
8
Základní_vrstva
62
3
10
3116.41110654356
20
3123.76494663641
30
0
11
3116.27710654356
21
3123.97264663641
31
0
0
LINE
8
Základní_vrstva
62
3
10
3116.27710654356
20
3123.97264663641
30
0
11
3116.21680654356
21
3124.20044663641
31
0
0
LINE
8
Základní_vrstva
62
3
10
3116.21680654356
20
3124.20044663641
30
0
11
3116.12300654356
21
3124.40144663641
31
0
0
LINE
8
Základní_vrstva
62
3
10
3116.12300654356
20
3124.40144663641
30
0
11
3115.90860654356
21
3124.50864663641
31
0
0
LINE
8
Základní_vrstva
62
3
10
3115.90860654356
20
3124.50864663641
30
0
11
3115.68750654356
21
3124.56894663641
31
0
0
LINE
8
Základní_vrstva
62
3
10
3115.68750654356
20
3124.56894663641
30
0
11
3115.50660654356
21
3124.69624663641
31
0
0
LINE
8
Základní_vrstva
62
3
10
3115.50660654356
20
3124.69624663641
30
0
11
3115.29890654356
21
3124.79004663641
31
0
0
LINE
8
Základní_vrstva
62
3
10
3115.29890654356
20
3124.79004663641
30
0
11
3115.07780654356
21
3124.72974663641
31
0
0
LINE
8
Základní_vrstva
62
3
10
3115.07780654356
20
3124.72974663641
30
0
11
3114.88350654356
21
3124.63594663641
31
0
0
LINE
8
Základní_vrstva
62
3
10
3114.88350654356
20
3124.63594663641
30
0
11
3114.65570654356
21
3124.61584663641
31
0
0
LINE
8
Základní_vrstva
62
3
10
3114.65570654356
20
3124.61584663641
30
0
11
3114.42790654356
21
3124.56224663641
31
0
0
LINE
8
Základní_vrstva
62
3
10
3114.42790654356
20
3124.56224663641
30
0
11
3114.28720654356
21
3124.36794663641
31
0
0
LINE
8
Základní_vrstva
62
3
10
3114.28720654356
20
3124.36794663641
30
0
11
3114.18670654356
21
3124.16024663641
31
0
0
LINE
8
Základní_vrstva
62
3
10
3114.18670654356
20
3124.16024663641
30
0
11
3114.03260654356
21
3124.00614663641
31
0
0
LINE
8
Základní_vrstva
62
3
10
3114.03260654356
20
3124.00614663641
30
0
11
3113.89860654356
21
3123.79844663641
31
0
0
LINE
8
Základní_vrstva
62
3
10
3113.89860654356
20
3123.79844663641
30
0
11
3113.91870654356
21
3123.57064663641
31
0
0
LINE
8
Základní_vrstva
62
3
10
3113.91870654356
20
3123.57064663641
30
0
11
3113.97900654356
21
3123.36294663641
31
0
0
LINE
8
Základní_vrstva
62
3
10
3113.97900654356
20
3123.36294663641
30
0
11
3113.95220654356
21
3123.14184663641
31
0
0
LINE
8
Základní_vrstva
62
3
10
3113.95220654356
20
3123.14184663641
30
0
11
3113.97230654356
21
3122.91404663641
31
0
0
LINE
8
Základní_vrstva
62
3
10
3113.97230654356
20
3122.91404663641
30
0
11
3114.13980654356
21
3122.73984663641
31
0
0
LINE
8
Základní_vrstva
62
3
10
3114.13980654356
20
3122.73984663641
30
0
11
3114.33410654356
21
3122.60584663641
31
0
0
LINE
8
Základní_vrstva
62
3
10
3114.33410654356
20
3122.60584663641
30
0
11
3114.46140654356
21
3122.42494663641
31
0
0
LINE
8
Základní_vrstva
62
3
10
3114.46140654356
20
3122.42494663641
30
0
11
3114.60880654356
21
3122.27084663641
31
0
0
LINE
8
Základní_vrstva
62
3
10
3114.60880654356
20
3122.27084663641
30
0
11
3114.83660654356
21
3122.25074663641
31
0
0
LINE
8
Základní_vrstva
62
3
10
3114.83660654356
20
3122.25074663641
30
0
11
3115.07110654356
21
3122.27084663641
31
0
0
LINE
8
Základní_vrstva
62
3
10
3115.07110654356
20
3122.27084663641
30
0
11
3115.28550654356
21
3122.21054663641
31
0
0
LINE
8
Základní_vrstva
62
3
10
3115.28550654356
20
3122.21054663641
30
0
11
3115.52000654356
21
3122.19044663641
31
0
0
LINE
8
Základní_vrstva
62
3
10
3115.52000654356
20
3122.19044663641
30
0
11
3115.70760654356
21
3122.31774663641
31
0
0
LINE
8
Základní_vrstva
62
3
10
3115.70760654356
20
3122.31774663641
30
0
11
3115.86170654356
21
3122.47854663641
31
0
0
LINE
8
Základní_vrstva
62
3
10
3115.86170654356
20
3122.47854663641
30
0
11
3116.06940654356
21
3122.57234663641
31
0
0
LINE
8
Základní_vrstva
62
3
10
3116.06940654356
20
3122.57234663641
30
0
11
3116.26370654356
21
3122.71304663641
31
0
0
LINE
8
Základní_vrstva
62
3
10
3116.26370654356
20
3122.71304663641
30
0
11
3116.33070654356
21
3122.94084663641
31
0
0
LINE
8
Základní_vrstva
62
3
10
3116.33070654356
20
3122.94084663641
30
0
11
3116.34410654356
21
3123.16864663641
31
0
0
LINE
8
Základní_vrstva
62
3
10
3116.34410654356
20
3123.16864663641
30
0
11
3116.43790654356
21
3123.38304663641
31
0
0
LINE
8
Základní_vrstva
62
3
10
3116.43790654356
20
3123.38304663641
30
0
11
3116.49820654356
21
3123.57734663641
31
0
0
CIRCLE
8
Základní_vrstva
62
3
10
3115.17830654356
20
3123.47014663641
30
0
40
0.111666666666679
0
LINE
8
Základní_vrstva
62
3
10
3121.75010029356
20
3123.18047163641
30
0
11
3121.66970029356
21
3123.36807163641
31
0
0
LINE
8
Základní_vrstva
62
3
10
3121.66970029356
20
3123.36807163641
30
0
11
3121.53570029356
21
3123.57577163641
31
0
0
LINE
8
Základní_vrstva
62
3
10
3121.53570029356
20
3123.57577163641
30
0
11
3121.47540029356
21
3123.80357163641
31
0
0
LINE
8
Základní_vrstva
62
3
10
3121.47540029356
20
3123.80357163641
30
0
11
3121.38160029356
21
3124.00457163641
31
0
0
LINE
8
Základní_vrstva
62
3
10
3121.38160029356
20
3124.00457163641
30
0
11
3121.16720029356
21
3124.11177163641
31
0
0
LINE
8
Základní_vrstva
62
3
10
3121.16720029356
20
3124.11177163641
30
0
11
3120.94610029356
21
3124.17207163641
31
0
0
LINE
8
Základní_vrstva
62
3
10
3120.94610029356
20
3124.17207163641
30
0
11
3120.76520029356
21
3124.29937163641
31
0
0
LINE
8
Základní_vrstva
62
3
10
3120.76520029356
20
3124.29937163641
30
0
11
3120.55750029356
21
3124.39317163641
31
0
0
LINE
8
Základní_vrstva
62
3
10
3120.55750029356
20
3124.39317163641
30
0
11
3120.33640029356
21
3124.33287163641
31
0
0
LINE
8
Základní_vrstva
62
3
10
3120.33640029356
20
3124.33287163641
30
0
11
3120.14210029356
21
3124.23907163641
31
0
0
LINE
8
Základní_vrstva
62
3
10
3120.14210029356
20
3124.23907163641
30
0
11
3119.91430029356
21
3124.21897163641
31
0
0
LINE
8
Základní_vrstva
62
3
10
3119.91430029356
20
3124.21897163641
30
0
11
3119.68650029356
21
3124.16537163641
31
0
0
LINE
8
Základní_vrstva
62
3
10
3119.68650029356
20
3124.16537163641
30
0
11
3119.54580029356
21
3123.97107163641
31
0
0
LINE
8
Základní_vrstva
62
3
10
3119.54580029356
20
3123.97107163641
30
0
11
3119.44530029356
21
3123.76337163641
31
0
0
LINE
8
Základní_vrstva
62
3
10
3119.44530029356
20
3123.76337163641
30
0
11
3119.29120029356
21
3123.60927163641
31
0
0
LINE
8
Základní_vrstva
62
3
10
3119.29120029356
20
3123.60927163641
30
0
11
3119.15720029356
21
3123.40157163641
31
0
0
LINE
8
Základní_vrstva
62
3
10
3119.15720029356
20
3123.40157163641
30
0
11
3119.17730029356
21
3123.17377163641
31
0
0
LINE
8
Základní_vrstva
62
3
10
3119.17730029356
20
3123.17377163641
30
0
11
3119.23760029356
21
3122.96607163641
31
0
0
LINE
8
Základní_vrstva
62
3
10
3119.23760029356
20
3122.96607163641
30
0
11
3119.21080029356
21
3122.74497163641
31
0
0
LINE
8
Základní_vrstva
62
3
10
3119.21080029356
20
3122.74497163641
30
0
11
3119.23090029356
21
3122.51717163641
31
0
0
LINE
8
Základní_vrstva
62
3
10
3119.23090029356
20
3122.51717163641
30
0
11
3119.39840029356
21
3122.34297163641
31
0
0
LINE
8
Základní_vrstva
62
3
10
3119.39840029356
20
3122.34297163641
30
0
11
3119.59270029356
21
3122.20897163641
31
0
0
LINE
8
Základní_vrstva
62
3
10
3119.59270029356
20
3122.20897163641
30
0
11
3119.72000029356
21
3122.02807163641
31
0
0
LINE
8
Základní_vrstva
62
3
10
3119.72000029356
20
3122.02807163641
30
0
11
3119.86740029356
21
3121.87397163641
31
0
0
LINE
8
Základní_vrstva
62
3
10
3119.86740029356
20
3121.87397163641
30
0
11
3120.09520029356
21
3121.85387163641
31
0
0
LINE
8
Základní_vrstva
62
3
10
3120.09520029356
20
3121.85387163641
30
0
11
3120.32970029356
21
3121.87397163641
31
0
0
LINE
8
Základní_vrstva
62
3
10
3120.32970029356
20
3121.87397163641
30
0
11
3120.54410029356
21
3121.81367163641
31
0
0
LINE
8
Základní_vrstva
62
3
10
3120.54410029356
20
3121.81367163641
30
0
11
3120.77860029356
21
3121.79357163641
31
0
0
LINE
8
Základní_vrstva
62
3
10
3120.77860029356
20
3121.79357163641
30
0
11
3120.96620029356
21
3121.92087163641
31
0
0
LINE
8
Základní_vrstva
62
3
10
3120.96620029356
20
3121.92087163641
30
0
11
3121.12030029356
21
3122.08167163641
31
0
0
LINE
8
Základní_vrstva
62
3
10
3121.12030029356
20
3122.08167163641
30
0
11
3121.32800029356
21
3122.17547163641
31
0
0
LINE
8
Základní_vrstva
62
3
10
3121.32800029356
20
3122.17547163641
30
0
11
3121.52230029356
21
3122.31617163641
31
0
0
LINE
8
Základní_vrstva
62
3
10
3121.52230029356
20
3122.31617163641
30
0
11
3121.58930029356
21
3122.54397163641
31
0
0
LINE
8
Základní_vrstva
62
3
10
3121.58930029356
20
3122.54397163641
30
0
11
3121.60270029356
21
3122.77177163641
31
0
0
LINE
8
Základní_vrstva
62
3
10
3121.60270029356
20
3122.77177163641
30
0
11
3121.69650029356
21
3122.98617163641
31
0
0
LINE
8
Základní_vrstva
62
3
10
3121.69650029356
20
3122.98617163641
30
0
11
3121.75680029356
21
3123.18047163641
31
0
0
CIRCLE
8
Základní_vrstva
62
3
10
3120.43690029356
20
3123.07327163641
30
0
40
0.111666666666679
0
LINE
8
Základní_vrstva
62
3
10
3127.60400654356
20
3123.37890913641
30
0
11
3127.52360654356
21
3123.56650913641
31
0
0
LINE
8
Základní_vrstva
62
3
10
3127.52360654356
20
3123.56650913641
30
0
11
3127.38960654356
21
3123.77420913641
31
0
0
LINE
8
Základní_vrstva
62
3
10
3127.38960654356
20
3123.77420913641
30
0
11
3127.32930654356
21
3124.00200913641
31
0
0
LINE
8
Základní_vrstva
62
3
10
3127.32930654356
20
3124.00200913641
30
0
11
3127.23550654356
21
3124.20300913641
31
0
0
LINE
8
Základní_vrstva
62
3
10
3127.23550654356
20
3124.20300913641
30
0
11
3127.02110654356
21
3124.31020913641
31
0
0
LINE
8
Základní_vrstva
62
3
10
3127.02110654356
20
3124.31020913641
30
0
11
3126.80000654356
21
3124.37050913641
31
0
0
LINE
8
Základní_vrstva
62
3
10
3126.80000654356
20
3124.37050913641
30
0
11
3126.61910654356
21
3124.49780913641
31
0
0
LINE
8
Základní_vrstva
62
3
10
3126.61910654356
20
3124.49780913641
30
0
11
3126.41140654356
21
3124.59160913641
31
0
0
LINE
8
Základní_vrstva
62
3
10
3126.41140654356
20
3124.59160913641
30
0
11
3126.19030654356
21
3124.53130913641
31
0
0
LINE
8
Základní_vrstva
62
3
10
3126.19030654356
20
3124.53130913641
30
0
11
3125.99600654356
21
3124.43750913641
31
0
0
LINE
8
Základní_vrstva
62
3
10
3125.99600654356
20
3124.43750913641
30
0
11
3125.76820654356
21
3124.41740913641
31
0
0
LINE
8
Základní_vrstva
62
3
10
3125.76820654356
20
3124.41740913641
30
0
11
3125.54040654356
21
3124.36380913641
31
0
0
LINE
8
Základní_vrstva
62
3
10
3125.54040654356
20
3124.36380913641
30
0
11
3125.39970654356
21
3124.16950913641
31
0
0
LINE
8
Základní_vrstva
62
3
10
3125.39970654356
20
3124.16950913641
30
0
11
3125.29920654356
21
3123.96180913641
31
0
0
LINE
8
Základní_vrstva
62
3
10
3125.29920654356
20
3123.96180913641
30
0
11
3125.14510654356
21
3123.80770913641
31
0
0
LINE
8
Základní_vrstva
62
3
10
3125.14510654356
20
3123.80770913641
30
0
11
3125.01110654356
21
3123.60000913641
31
0
0
LINE
8
Základní_vrstva
62
3
10
3125.01110654356
20
3123.60000913641
30
0
11
3125.03120654356
21
3123.37220913641
31
0
0
LINE
8
Základní_vrstva
62
3
10
3125.03120654356
20
3123.37220913641
30
0
11
3125.09150654356
21
3123.16450913641
31
0
0
LINE
8
Základní_vrstva
62
3
10
3125.09150654356
20
3123.16450913641
30
0
11
3125.06470654356
21
3122.94340913641
31
0
0
LINE
8
Základní_vrstva
62
3
10
3125.06470654356
20
3122.94340913641
30
0
11
3125.08480654356
21
3122.71560913641
31
0
0
LINE
8
Základní_vrstva
62
3
10
3125.08480654356
20
3122.71560913641
30
0
11
3125.25230654356
21
3122.54140913641
31
0
0
LINE
8
Základní_vrstva
62
3
10
3125.25230654356
20
3122.54140913641
30
0
11
3125.44660654356
21
3122.40740913641
31
0
0
LINE
8
Základní_vrstva
62
3
10
3125.44660654356
20
3122.40740913641
30
0
11
3125.57390654356
21
3122.22650913641
31
0
0
LINE
8
Základní_vrstva
62
3
10
3125.57390654356
20
3122.22650913641
30
0
11
3125.72130654356
21
3122.07240913641
31
0
0
LINE
8
Základní_vrstva
62
3
10
3125.72130654356
20
3122.07240913641
30
0
11
3125.94910654356
21
3122.05230913641
31
0
0
LINE
8
Základní_vrstva
62
3
10
3125.94910654356
20
3122.05230913641
30
0
11
3126.18360654356
21
3122.07240913641
31
0
0
LINE
8
Základní_vrstva
62
3
10
3126.18360654356
20
3122.07240913641
30
0
11
3126.39800654356
21
3122.01210913641
31
0
0
LINE
8
Základní_vrstva
62
3
10
3126.39800654356
20
3122.01210913641
30
0
11
3126.63250654356
21
3121.99200913641
31
0
0
LINE
8
Základní_vrstva
62
3
10
3126.63250654356
20
3121.99200913641
30
0
11
3126.82010654356
21
3122.11930913641
31
0
0
LINE
8
Základní_vrstva
62
3
10
3126.82010654356
20
3122.11930913641
30
0
11
3126.97420654356
21
3122.28010913641
31
0
0
LINE
8
Základní_vrstva
62
3
10
3126.97420654356
20
3122.28010913641
30
0
11
3127.18190654356
21
3122.37390913641
31
0
0
LINE
8
Základní_vrstva
62
3
10
3127.18190654356
20
3122.37390913641
30
0
11
3127.37620654356
21
3122.51460913641
31
0
0
LINE
8
Základní_vrstva
62
3
10
3127.37620654356
20
3122.51460913641
30
0
11
3127.44320654356
21
3122.74240913641
31
0
0
LINE
8
Základní_vrstva
62
3
10
3127.44320654356
20
3122.74240913641
30
0
11
3127.45660654356
21
3122.97020913641
31
0
0
LINE
8
Základní_vrstva
62
3
10
3127.45660654356
20
3122.97020913641
30
0
11
3127.55040654356
21
3123.18460913641
31
0
0
LINE
8
Základní_vrstva
62
3
10
3127.55040654356
20
3123.18460913641
30
0
11
3127.61070654356
21
3123.37890913641
31
0
0
CIRCLE
8
Základní_vrstva
62
3
10
3126.29080654356
20
3123.27170913641
30
0
40
0.111666666666679
0
LINE
8
Základní_vrstva
62
3
10
3132.36650654356
20
3124.07344038641
30
0
11
3132.28610654356
21
3124.26104038641
31
0
0
LINE
8
Základní_vrstva
62
3
10
3132.28610654356
20
3124.26104038641
30
0
11
3132.15210654356
21
3124.46874038641
31
0
0
LINE
8
Základní_vrstva
62
3
10
3132.15210654356
20
3124.46874038641
30
0
11
3132.09180654356
21
3124.69654038641
31
0
0
LINE
8
Základní_vrstva
62
3
10
3132.09180654356
20
3124.69654038641
30
0
11
3131.99800654356
21
3124.89754038641
31
0
0
LINE
8
Základní_vrstva
62
3
10
3131.99800654356
20
3124.89754038641
30
0
11
3131.78360654356
21
3125.00474038641
31
0
0
LINE
8
Základní_vrstva
62
3
10
3131.78360654356
20
3125.00474038641
30
0
11
3131.56250654356
21
3125.06504038641
31
0
0
LINE
8
Základní_vrstva
62
3
10
3131.56250654356
20
3125.06504038641
30
0
11
3131.38160654356
21
3125.19234038641
31
0
0
LINE
8
Základní_vrstva
62
3
10
3131.38160654356
20
3125.19234038641
30
0
11
3131.17390654356
21
3125.28614038641
31
0
0
LINE
8
Základní_vrstva
62
3
10
3131.17390654356
20
3125.28614038641
30
0
11
3130.95280654356
21
3125.22584038641
31
0
0
LINE
8
Základní_vrstva
62
3
10
3130.95280654356
20
3125.22584038641
30
0
11
3130.75850654356
21
3125.13204038641
31
0
0
LINE
8
Základní_vrstva
62
3
10
3130.75850654356
20
3125.13204038641
30
0
11
3130.53070654356
21
3125.11194038641
31
0
0
LINE
8
Základní_vrstva
62
3
10
3130.53070654356
20
3125.11194038641
30
0
11
3130.30290654356
21
3125.05834038641
31
0
0
LINE
8
Základní_vrstva
62
3
10
3130.30290654356
20
3125.05834038641
30
0
11
3130.16220654356
21
3124.86404038641
31
0
0
LINE
8
Základní_vrstva
62
3
10
3130.16220654356
20
3124.86404038641
30
0
11
3130.06170654356
21
3124.65634038641
31
0
0
LINE
8
Základní_vrstva
62
3
10
3130.06170654356
20
3124.65634038641
30
0
11
3129.90760654356
21
3124.50224038641
31
0
0
LINE
8
Základní_vrstva
62
3
10
3129.90760654356
20
3124.50224038641
30
0
11
3129.77360654356
21
3124.29454038641
31
0
0
LINE
8
Základní_vrstva
62
3
10
3129.77360654356
20
3124.29454038641
30
0
11
3129.79370654356
21
3124.06674038641
31
0
0
LINE
8
Základní_vrstva
62
3
10
3129.79370654356
20
3124.06674038641
30
0
11
3129.85400654356
21
3123.85904038641
31
0
0
LINE
8
Základní_vrstva
62
3
10
3129.85400654356
20
3123.85904038641
30
0
11
3129.82720654356
21
3123.63794038641
31
0
0
LINE
8
Základní_vrstva
62
3
10
3129.82720654356
20
3123.63794038641
30
0
11
3129.84730654356
21
3123.41014038641
31
0
0
LINE
8
Základní_vrstva
62
3
10
3129.84730654356
20
3123.41014038641
30
0
11
3130.01480654356
21
3123.23594038641
31
0
0
LINE
8
Základní_vrstva
62
3
10
3130.01480654356
20
3123.23594038641
30
0
11
3130.20910654356
21
3123.10194038641
31
0
0
LINE
8
Základní_vrstva
62
3
10
3130.20910654356
20
3123.10194038641
30
0
11
3130.33640654356
21
3122.92104038641
31
0
0
LINE
8
Základní_vrstva
62
3
10
3130.33640654356
20
3122.92104038641
30
0
11
3130.48380654356
21
3122.76694038641
31
0
0
LINE
8
Základní_vrstva
62
3
10
3130.48380654356
20
3122.76694038641
30
0
11
3130.71160654356
21
3122.74684038641
31
0
0
LINE
8
Základní_vrstva
62
3
10
3130.71160654356
20
3122.74684038641
30
0
11
3130.94610654356
21
3122.76694038641
31
0
0
LINE
8
Základní_vrstva
62
3
10
3130.94610654356
20
3122.76694038641
30
0
11
3131.16050654356
21
3122.70664038641
31
0
0
LINE
8
Základní_vrstva
62
3
10
3131.16050654356
20
3122.70664038641
30
0
11
3131.39500654356
21
3122.68654038641
31
0
0
LINE
8
Základní_vrstva
62
3
10
3131.39500654356
20
3122.68654038641
30
0
11
3131.58260654356
21
3122.81384038641
31
0
0
LINE
8
Základní_vrstva
62
3
10
3131.58260654356
20
3122.81384038641
30
0
11
3131.73670654356
21
3122.97464038641
31
0
0
LINE
8
Základní_vrstva
62
3
10
3131.73670654356
20
3122.97464038641
30
0
11
3131.94440654356
21
3123.06844038641
31
0
0
LINE
8
Základní_vrstva
62
3
10
3131.94440654356
20
3123.06844038641
30
0
11
3132.13870654356
21
3123.20914038641
31
0
0
LINE
8
Základní_vrstva
62
3
10
3132.13870654356
20
3123.20914038641
30
0
11
3132.20570654356
21
3123.43694038641
31
0
0
LINE
8
Základní_vrstva
62
3
10
3132.20570654356
20
3123.43694038641
30
0
11
3132.21910654356
21
3123.66474038641
31
0
0
LINE
8
Základní_vrstva
62
3
10
3132.21910654356
20
3123.66474038641
30
0
11
3132.31290654356
21
3123.87914038641
31
0
0
LINE
8
Základní_vrstva
62
3
10
3132.31290654356
20
3123.87914038641
30
0
11
3132.37320654356
21
3124.07344038641
31
0
0
CIRCLE
8
Základní_vrstva
62
3
10
3131.05330654356
20
3123.96624038641
30
0
40
0.111666666666679
0
LINE
8
Základní_vrstva
62
3
10
3137.02978779356
20
3124.86719038641
30
0
11
3136.94938779356
21
3125.05479038641
31
0
0
LINE
8
Základní_vrstva
62
3
10
3136.94938779356
20
3125.05479038641
30
0
11
3136.81538779356
21
3125.26249038641
31
0
0
LINE
8
Základní_vrstva
62
3
10
3136.81538779356
20
3125.26249038641
30
0
11
3136.75508779356
21
3125.49029038641
31
0
0
LINE
8
Základní_vrstva
62
3
10
3136.75508779356
20
3125.49029038641
30
0
11
3136.66128779356
21
3125.69129038641
31
0
0
LINE
8
Základní_vrstva
62
3
10
3136.66128779356
20
3125.69129038641
30
0
11
3136.44688779356
21
3125.79849038641
31
0
0
LINE
8
Základní_vrstva
62
3
10
3136.44688779356
20
3125.79849038641
30
0
11
3136.22578779356
21
3125.85879038641
31
0
0
LINE
8
Základní_vrstva
62
3
10
3136.22578779356
20
3125.85879038641
30
0
11
3136.04488779356
21
3125.98609038641
31
0
0
LINE
8
Základní_vrstva
62
3
10
3136.04488779356
20
3125.98609038641
30
0
11
3135.83718779356
21
3126.07989038641
31
0
0
LINE
8
Základní_vrstva
62
3
10
3135.83718779356
20
3126.07989038641
30
0
11
3135.61608779356
21
3126.01959038641
31
0
0
LINE
8
Základní_vrstva
62
3
10
3135.61608779356
20
3126.01959038641
30
0
11
3135.42178779356
21
3125.92579038641
31
0
0
LINE
8
Základní_vrstva
62
3
10
3135.42178779356
20
3125.92579038641
30
0
11
3135.19398779356
21
3125.90569038641
31
0
0
LINE
8
Základní_vrstva
62
3
10
3135.19398779356
20
3125.90569038641
30
0
11
3134.96618779356
21
3125.85209038641
31
0
0
LINE
8
Základní_vrstva
62
3
10
3134.96618779356
20
3125.85209038641
30
0
11
3134.82548779356
21
3125.65779038641
31
0
0
LINE
8
Základní_vrstva
62
3
10
3134.82548779356
20
3125.65779038641
30
0
11
3134.72498779356
21
3125.45009038641
31
0
0
LINE
8
Základní_vrstva
62
3
10
3134.72498779356
20
3125.45009038641
30
0
11
3134.57088779356
21
3125.29599038641
31
0
0
LINE
8
Základní_vrstva
62
3
10
3134.57088779356
20
3125.29599038641
30
0
11
3134.43688779356
21
3125.08829038641
31
0
0
LINE
8
Základní_vrstva
62
3
10
3134.43688779356
20
3125.08829038641
30
0
11
3134.45698779356
21
3124.86049038641
31
0
0
LINE
8
Základní_vrstva
62
3
10
3134.45698779356
20
3124.86049038641
30
0
11
3134.51728779356
21
3124.65279038641
31
0
0
LINE
8
Základní_vrstva
62
3
10
3134.51728779356
20
3124.65279038641
30
0
11
3134.49048779356
21
3124.43169038641
31
0
0
LINE
8
Základní_vrstva
62
3
10
3134.49048779356
20
3124.43169038641
30
0
11
3134.51058779356
21
3124.20389038641
31
0
0
LINE
8
Základní_vrstva
62
3
10
3134.51058779356
20
3124.20389038641
30
0
11
3134.67808779356
21
3124.02969038641
31
0
0
LINE
8
Základní_vrstva
62
3
10
3134.67808779356
20
3124.02969038641
30
0
11
3134.87238779356
21
3123.89569038641
31
0
0
LINE
8
Základní_vrstva
62
3
10
3134.87238779356
20
3123.89569038641
30
0
11
3134.99968779356
21
3123.71479038641
31
0
0
LINE
8
Základní_vrstva
62
3
10
3134.99968779356
20
3123.71479038641
30
0
11
3135.14708779356
21
3123.56069038641
31
0
0
LINE
8
Základní_vrstva
62
3
10
3135.14708779356
20
3123.56069038641
30
0
11
3135.37488779356
21
3123.54059038641
31
0
0
LINE
8
Základní_vrstva
62
3
10
3135.37488779356
20
3123.54059038641
30
0
11
3135.60938779356
21
3123.56069038641
31
0
0
LINE
8
Základní_vrstva
62
3
10
3135.60938779356
20
3123.56069038641
30
0
11
3135.82378779356
21
3123.50039038641
31
0
0
LINE
8
Základní_vrstva
62
3
10
3135.82378779356
20
3123.50039038641
30
0
11
3136.05828779356
21
3123.48029038641
31
0
0
LINE
8
Základní_vrstva
62
3
10
3136.05828779356
20
3123.48029038641
30
0
11
3136.24588779356
21
3123.60759038641
31
0
0
LINE
8
Základní_vrstva
62
3
10
3136.24588779356
20
3123.60759038641
30
0
11
3136.39998779356
21
3123.76839038641
31
0
0
LINE
8
Základní_vrstva
62
3
10
3136.39998779356
20
3123.76839038641
30
0
11
3136.60768779356
21
3123.86219038641
31
0
0
LINE
8
Základní_vrstva
62
3
10
3136.60768779356
20
3123.86219038641
30
0
11
3136.80198779356
21
3124.00289038641
31
0
0
LINE
8
Základní_vrstva
62
3
10
3136.80198779356
20
3124.00289038641
30
0
11
3136.86898779356
21
3124.23069038641
31
0
0
LINE
8
Základní_vrstva
62
3
10
3136.86898779356
20
3124.23069038641
30
0
11
3136.88238779356
21
3124.45849038641
31
0
0
LINE
8
Základní_vrstva
62
3
10
3136.88238779356
20
3124.45849038641
30
0
11
3136.97618779356
21
3124.67289038641
31
0
0
LINE
8
Základní_vrstva
62
3
10
3136.97618779356
20
3124.67289038641
30
0
11
3137.03648779356
21
3124.86719038641
31
0
0
CIRCLE
8
Základní_vrstva
62
3
10
3135.71658779356
20
3124.75999038641
30
0
40
0.111666666666679
0
LINE
8
Základní_vrstva
62
3
10
3142.28838154356
20
3126.65312788641
30
0
11
3142.20798154356
21
3126.84072788641
31
0
0
LINE
8
Základní_vrstva
62
3
10
3142.20798154356
20
3126.84072788641
30
0
11
3142.07398154356
21
3127.04842788641
31
0
0
LINE
8
Základní_vrstva
62
3
10
3142.07398154356
20
3127.04842788641
30
0
11
3142.01368154356
21
3127.27622788641
31
0
0
LINE
8
Základní_vrstva
62
3
10
3142.01368154356
20
3127.27622788641
30
0
11
3141.91988154356
21
3127.47722788641
31
0
0
LINE
8
Základní_vrstva
62
3
10
3141.91988154356
20
3127.47722788641
30
0
11
3141.70548154356
21
3127.58442788641
31
0
0
LINE
8
Základní_vrstva
62
3
10
3141.70548154356
20
3127.58442788641
30
0
11
3141.48438154356
21
3127.64472788641
31
0
0
LINE
8
Základní_vrstva
62
3
10
3141.48438154356
20
3127.64472788641
30
0
11
3141.30348154356
21
3127.77202788641
31
0
0
LINE
8
Základní_vrstva
62
3
10
3141.30348154356
20
3127.77202788641
30
0
11
3141.09578154356
21
3127.86582788641
31
0
0
LINE
8
Základní_vrstva
62
3
10
3141.09578154356
20
3127.86582788641
30
0
11
3140.87468154356
21
3127.80552788641
31
0
0
LINE
8
Základní_vrstva
62
3
10
3140.87468154356
20
3127.80552788641
30
0
11
3140.68038154356
21
3127.71172788641
31
0
0
LINE
8
Základní_vrstva
62
3
10
3140.68038154356
20
3127.71172788641
30
0
11
3140.45258154356
21
3127.69162788641
31
0
0
LINE
8
Základní_vrstva
62
3
10
3140.45258154356
20
3127.69162788641
30
0
11
3140.22478154356
21
3127.63802788641
31
0
0
LINE
8
Základní_vrstva
62
3
10
3140.22478154356
20
3127.63802788641
30
0
11
3140.08408154356
21
3127.44372788641
31
0
0
LINE
8
Základní_vrstva
62
3
10
3140.08408154356
20
3127.44372788641
30
0
11
3139.98358154356
21
3127.23602788641
31
0
0
LINE
8
Základní_vrstva
62
3
10
3139.98358154356
20
3127.23602788641
30
0
11
3139.82948154356
21
3127.08192788641
31
0
0
LINE
8
Základní_vrstva
62
3
10
3139.82948154356
20
3127.08192788641
30
0
11
3139.69548154356
21
3126.87422788641
31
0
0
LINE
8
Základní_vrstva
62
3
10
3139.69548154356
20
3126.87422788641
30
0
11
3139.71558154356
21
3126.64642788641
31
0
0
LINE
8
Základní_vrstva
62
3
10
3139.71558154356
20
3126.64642788641
30
0
11
3139.77588154356
21
3126.43872788641
31
0
0
LINE
8
Základní_vrstva
62
3
10
3139.77588154356
20
3126.43872788641
30
0
11
3139.74908154356
21
3126.21762788641
31
0
0
LINE
8
Základní_vrstva
62
3
10
3139.74908154356
20
3126.21762788641
30
0
11
3139.76918154356
21
3125.98982788641
31
0
0
LINE
8
Základní_vrstva
62
3
10
3139.76918154356
20
3125.98982788641
30
0
11
3139.93668154356
21
3125.81562788641
31
0
0
LINE
8
Základní_vrstva
62
3
10
3139.93668154356
20
3125.81562788641
30
0
11
3140.13098154356
21
3125.68162788641
31
0
0
LINE
8
Základní_vrstva
62
3
10
3140.13098154356
20
3125.68162788641
30
0
11
3140.25828154356
21
3125.50072788641
31
0
0
LINE
8
Základní_vrstva
62
3
10
3140.25828154356
20
3125.50072788641
30
0
11
3140.40568154356
21
3125.34662788641
31
0
0
LINE
8
Základní_vrstva
62
3
10
3140.40568154356
20
3125.34662788641
30
0
11
3140.63348154356
21
3125.32652788641
31
0
0
LINE
8
Základní_vrstva
62
3
10
3140.63348154356
20
3125.32652788641
30
0
11
3140.86798154356
21
3125.34662788641
31
0
0
LINE
8
Základní_vrstva
62
3
10
3140.86798154356
20
3125.34662788641
30
0
11
3141.08238154356
21
3125.28632788641
31
0
0
LINE
8
Základní_vrstva
62
3
10
3141.08238154356
20
3125.28632788641
30
0
11
3141.31688154356
21
3125.26622788641
31
0
0
LINE
8
Základní_vrstva
62
3
10
3141.31688154356
20
3125.26622788641
30
0
11
3141.50448154356
21
3125.39352788641
31
0
0
LINE
8
Základní_vrstva
62
3
10
3141.50448154356
20
3125.39352788641
30
0
11
3141.65858154356
21
3125.55432788641
31
0
0
LINE
8
Základní_vrstva
62
3
10
3141.65858154356
20
3125.55432788641
30
0
11
3141.86628154356
21
3125.64812788641
31
0
0
LINE
8
Základní_vrstva
62
3
10
3141.86628154356
20
3125.64812788641
30
0
11
3142.06058154356
21
3125.78882788641
31
0
0
LINE
8
Základní_vrstva
62
3
10
3142.06058154356
20
3125.78882788641
30
0
11
3142.12758154356
21
3126.01662788641
31
0
0
LINE
8
Základní_vrstva
62
3
10
3142.12758154356
20
3126.01662788641
30
0
11
3142.14098154356
21
3126.24442788641
31
0
0
LINE
8
Základní_vrstva
62
3
10
3142.14098154356
20
3126.24442788641
30
0
11
3142.23478154356
21
3126.45882788641
31
0
0
LINE
8
Základní_vrstva
62
3
10
3142.23478154356
20
3126.45882788641
30
0
11
3142.29508154356
21
3126.65312788641
31
0
0
CIRCLE
8
Základní_vrstva
62
3
10
3140.97518154356
20
3126.54592788641
30
0
40
0.111666666666679
0
LINE
8
Základní_vrstva
62
3
10
3147.15010029356
20
3128.14140913641
30
0
11
3147.06970029356
21
3128.32900913641
31
0
0
LINE
8
Základní_vrstva
62
3
10
3147.06970029356
20
3128.32900913641
30
0
11
3146.93570029356
21
3128.53670913641
31
0
0
LINE
8
Základní_vrstva
62
3
10
3146.93570029356
20
3128.53670913641
30
0
11
3146.87540029356
21
3128.76450913641
31
0
0
LINE
8
Základní_vrstva
62
3
10
3146.87540029356
20
3128.76450913641
30
0
11
3146.78160029356
21
3128.96550913641
31
0
0
LINE
8
Základní_vrstva
62
3
10
3146.78160029356
20
3128.96550913641
30
0
11
3146.56720029356
21
3129.07270913641
31
0
0
LINE
8
Základní_vrstva
62
3
10
3146.56720029356
20
3129.07270913641
30
0
11
3146.34610029356
21
3129.13300913641
31
0
0
LINE
8
Základní_vrstva
62
3
10
3146.34610029356
20
3129.13300913641
30
0
11
3146.16520029356
21
3129.26030913641
31
0
0
LINE
8
Základní_vrstva
62
3
10
3146.16520029356
20
3129.26030913641
30
0
11
3145.95750029356
21
3129.35410913641
31
0
0
LINE
8
Základní_vrstva
62
3
10
3145.95750029356
20
3129.35410913641
30
0
11
3145.73640029356
21
3129.29380913641
31
0
0
LINE
8
Základní_vrstva
62
3
10
3145.73640029356
20
3129.29380913641
30
0
11
3145.54210029356
21
3129.20000913641
31
0
0
LINE
8
Základní_vrstva
62
3
10
3145.54210029356
20
3129.20000913641
30
0
11
3145.31430029356
21
3129.17990913641
31
0
0
LINE
8
Základní_vrstva
62
3
10
3145.31430029356
20
3129.17990913641
30
0
11
3145.08650029356
21
3129.12630913641
31
0
0
LINE
8
Základní_vrstva
62
3
10
3145.08650029356
20
3129.12630913641
30
0
11
3144.94580029356
21
3128.93200913641
31
0
0
LINE
8
Základní_vrstva
62
3
10
3144.94580029356
20
3128.93200913641
30
0
11
3144.84530029356
21
3128.72430913641
31
0
0
LINE
8
Základní_vrstva
62
3
10
3144.84530029356
20
3128.72430913641
30
0
11
3144.69120029356
21
3128.57020913641
31
0
0
LINE
8
Základní_vrstva
62
3
10
3144.69120029356
20
3128.57020913641
30
0
11
3144.55720029356
21
3128.36250913641
31
0
0
LINE
8
Základní_vrstva
62
3
10
3144.55720029356
20
3128.36250913641
30
0
11
3144.57730029356
21
3128.13470913641
31
0
0
LINE
8
Základní_vrstva
62
3
10
3144.57730029356
20
3128.13470913641
30
0
11
3144.63760029356
21
3127.92700913641
31
0
0
LINE
8
Základní_vrstva
62
3
10
3144.63760029356
20
3127.92700913641
30
0
11
3144.61080029356
21
3127.70590913641
31
0
0
LINE
8
Základní_vrstva
62
3
10
3144.61080029356
20
3127.70590913641
30
0
11
3144.63090029356
21
3127.47810913641
31
0
0
LINE
8
Základní_vrstva
62
3
10
3144.63090029356
20
3127.47810913641
30
0
11
3144.79840029356
21
3127.30390913641
31
0
0
LINE
8
Základní_vrstva
62
3
10
3144.79840029356
20
3127.30390913641
30
0
11
3144.99270029356
21
3127.16990913641
31
0
0
LINE
8
Základní_vrstva
62
3
10
3144.99270029356
20
3127.16990913641
30
0
11
3145.12000029356
21
3126.98900913641
31
0
0
LINE
8
Základní_vrstva
62
3
10
3145.12000029356
20
3126.98900913641
30
0
11
3145.26740029356
21
3126.83490913641
31
0
0
LINE
8
Základní_vrstva
62
3
10
3145.26740029356
20
3126.83490913641
30
0
11
3145.49520029356
21
3126.81480913641
31
0
0
LINE
8
Základní_vrstva
62
3
10
3145.49520029356
20
3126.81480913641
30
0
11
3145.72970029356
21
3126.83490913641
31
0
0
LINE
8
Základní_vrstva
62
3
10
3145.72970029356
20
3126.83490913641
30
0
11
3145.94410029356
21
3126.77460913641
31
0
0
LINE
8
Základní_vrstva
62
3
10
3145.94410029356
20
3126.77460913641
30
0
11
3146.17860029356
21
3126.75450913641
31
0
0
LINE
8
Základní_vrstva
62
3
10
3146.17860029356
20
3126.75450913641
30
0
11
3146.36620029356
21
3126.88180913641
31
0
0
LINE
8
Základní_vrstva
62
3
10
3146.36620029356
20
3126.88180913641
30
0
11
3146.52030029356
21
3127.04260913641
31
0
0
LINE
8
Základní_vrstva
62
3
10
3146.52030029356
20
3127.04260913641
30
0
11
3146.72800029356
21
3127.13640913641
31
0
0
LINE
8
Základní_vrstva
62
3
10
3146.72800029356
20
3127.13640913641
30
0
11
3146.92230029356
21
3127.27710913641
31
0
0
LINE
8
Základní_vrstva
62
3
10
3146.92230029356
20
3127.27710913641
30
0
11
3146.98930029356
21
3127.50490913641
31
0
0
LINE
8
Základní_vrstva
62
3
10
3146.98930029356
20
3127.50490913641
30
0
11
3147.00270029356
21
3127.73270913641
31
0
0
LINE
8
Základní_vrstva
62
3
10
3147.00270029356
20
3127.73270913641
30
0
11
3147.09650029356
21
3127.94710913641
31
0
0
LINE
8
Základní_vrstva
62
3
10
3147.09650029356
20
3127.94710913641
30
0
11
3147.15680029356
21
3128.14140913641
31
0
0
CIRCLE
8
Základní_vrstva
62
3
10
3145.83690029356
20
3128.03420913641
30
0
40
0.111666666666679
0
LINE
8
Základní_vrstva
62
3
10
3152.01181904356
20
3130.12578413641
30
0
11
3151.93141904356
21
3130.31338413641
31
0
0
LINE
8
Základní_vrstva
62
3
10
3151.93141904356
20
3130.31338413641
30
0
11
3151.79741904356
21
3130.52108413641
31
0
0
LINE
8
Základní_vrstva
62
3
10
3151.79741904356
20
3130.52108413641
30
0
11
3151.73711904356
21
3130.74888413641
31
0
0
LINE
8
Základní_vrstva
62
3
10
3151.73711904356
20
3130.74888413641
30
0
11
3151.64331904356
21
3130.94988413641
31
0
0
LINE
8
Základní_vrstva
62
3
10
3151.64331904356
20
3130.94988413641
30
0
11
3151.42891904356
21
3131.05708413641
31
0
0
LINE
8
Základní_vrstva
62
3
10
3151.42891904356
20
3131.05708413641
30
0
11
3151.20781904356
21
3131.11738413641
31
0
0
LINE
8
Základní_vrstva
62
3
10
3151.20781904356
20
3131.11738413641
30
0
11
3151.02691904356
21
3131.24468413641
31
0
0
LINE
8
Základní_vrstva
62
3
10
3151.02691904356
20
3131.24468413641
30
0
11
3150.81921904356
21
3131.33848413641
31
0
0
LINE
8
Základní_vrstva
62
3
10
3150.81921904356
20
3131.33848413641
30
0
11
3150.59811904356
21
3131.27818413641
31
0
0
LINE
8
Základní_vrstva
62
3
10
3150.59811904356
20
3131.27818413641
30
0
11
3150.40381904356
21
3131.18438413641
31
0
0
LINE
8
Základní_vrstva
62
3
10
3150.40381904356
20
3131.18438413641
30
0
11
3150.17601904356
21
3131.16428413641
31
0
0
LINE
8
Základní_vrstva
62
3
10
3150.17601904356
20
3131.16428413641
30
0
11
3149.94821904356
21
3131.11068413641
31
0
0
LINE
8
Základní_vrstva
62
3
10
3149.94821904356
20
3131.11068413641
30
0
11
3149.80751904356
21
3130.91638413641
31
0
0
LINE
8
Základní_vrstva
62
3
10
3149.80751904356
20
3130.91638413641
30
0
11
3149.70701904356
21
3130.70868413641
31
0
0
LINE
8
Základní_vrstva
62
3
10
3149.70701904356
20
3130.70868413641
30
0
11
3149.55291904356
21
3130.55458413641
31
0
0
LINE
8
Základní_vrstva
62
3
10
3149.55291904356
20
3130.55458413641
30
0
11
3149.41891904356
21
3130.34688413641
31
0
0
LINE
8
Základní_vrstva
62
3
10
3149.41891904356
20
3130.34688413641
30
0
11
3149.43901904356
21
3130.11908413641
31
0
0
LINE
8
Základní_vrstva
62
3
10
3149.43901904356
20
3130.11908413641
30
0
11
3149.49931904356
21
3129.91138413641
31
0
0
LINE
8
Základní_vrstva
62
3
10
3149.49931904356
20
3129.91138413641
30
0
11
3149.47251904356
21
3129.69028413641
31
0
0
LINE
8
Základní_vrstva
62
3
10
3149.47251904356
20
3129.69028413641
30
0
11
3149.49261904356
21
3129.46248413641
31
0
0
LINE
8
Základní_vrstva
62
3
10
3149.49261904356
20
3129.46248413641
30
0
11
3149.66011904356
21
3129.28828413641
31
0
0
LINE
8
Základní_vrstva
62
3
10
3149.66011904356
20
3129.28828413641
30
0
11
3149.85441904356
21
3129.15428413641
31
0
0
LINE
8
Základní_vrstva
62
3
10
3149.85441904356
20
3129.15428413641
30
0
11
3149.98171904356
21
3128.97338413641
31
0
0
LINE
8
Základní_vrstva
62
3
10
3149.98171904356
20
3128.97338413641
30
0
11
3150.12911904356
21
3128.81928413641
31
0
0
LINE
8
Základní_vrstva
62
3
10
3150.12911904356
20
3128.81928413641
30
0
11
3150.35691904356
21
3128.79918413641
31
0
0
LINE
8
Základní_vrstva
62
3
10
3150.35691904356
20
3128.79918413641
30
0
11
3150.59141904356
21
3128.81928413641
31
0
0
LINE
8
Základní_vrstva
62
3
10
3150.59141904356
20
3128.81928413641
30
0
11
3150.80581904356
21
3128.75898413641
31
0
0
LINE
8
Základní_vrstva
62
3
10
3150.80581904356
20
3128.75898413641
30
0
11
3151.04031904356
21
3128.73888413641
31
0
0
LINE
8
Základní_vrstva
62
3
10
3151.04031904356
20
3128.73888413641
30
0
11
3151.22791904356
21
3128.86618413641
31
0
0
LINE
8
Základní_vrstva
62
3
10
3151.22791904356
20
3128.86618413641
30
0
11
3151.38201904356
21
3129.02698413641
31
0
0
LINE
8
Základní_vrstva
62
3
10
3151.38201904356
20
3129.02698413641
30
0
11
3151.58971904356
21
3129.12078413641
31
0
0
LINE
8
Základní_vrstva
62
3
10
3151.58971904356
20
3129.12078413641
30
0
11
3151.78401904356
21
3129.26148413641
31
0
0
LINE
8
Základní_vrstva
62
3
10
3151.78401904356
20
3129.26148413641
30
0
11
3151.85101904356
21
3129.48928413641
31
0
0
LINE
8
Základní_vrstva
62
3
10
3151.85101904356
20
3129.48928413641
30
0
11
3151.86441904356
21
3129.71708413641
31
0
0
LINE
8
Základní_vrstva
62
3
10
3151.86441904356
20
3129.71708413641
30
0
11
3151.95821904356
21
3129.93148413641
31
0
0
LINE
8
Základní_vrstva
62
3
10
3151.95821904356
20
3129.93148413641
30
0
11
3152.01851904356
21
3130.12578413641
31
0
0
CIRCLE
8
Základní_vrstva
62
3
10
3150.69861904356
20
3130.01858413641
30
0
40
0.111666666666679
0
LINE
8
Základní_vrstva
62
3
10
3156.67510029356
20
3132.40781538641
30
0
11
3156.59470029356
21
3132.59541538641
31
0
0
LINE
8
Základní_vrstva
62
3
10
3156.59470029356
20
3132.59541538641
30
0
11
3156.46070029356
21
3132.80311538641
31
0
0
LINE
8
Základní_vrstva
62
3
10
3156.46070029356
20
3132.80311538641
30
0
11
3156.40040029356
21
3133.03091538641
31
0
0
LINE
8
Základní_vrstva
62
3
10
3156.40040029356
20
3133.03091538641
30
0
11
3156.30660029356
21
3133.23191538641
31
0
0
LINE
8
Základní_vrstva
62
3
10
3156.30660029356
20
3133.23191538641
30
0
11
3156.09220029356
21
3133.33911538641
31
0
0
LINE
8
Základní_vrstva
62
3
10
3156.09220029356
20
3133.33911538641
30
0
11
3155.87110029356
21
3133.39941538641
31
0
0
LINE
8
Základní_vrstva
62
3
10
3155.87110029356
20
3133.39941538641
30
0
11
3155.69020029356
21
3133.52671538641
31
0
0
LINE
8
Základní_vrstva
62
3
10
3155.69020029356
20
3133.52671538641
30
0
11
3155.48250029356
21
3133.62051538641
31
0
0
LINE
8
Základní_vrstva
62
3
10
3155.48250029356
20
3133.62051538641
30
0
11
3155.26140029356
21
3133.56021538641
31
0
0
LINE
8
Základní_vrstva
62
3
10
3155.26140029356
20
3133.56021538641
30
0
11
3155.06710029356
21
3133.46641538641
31
0
0
LINE
8
Základní_vrstva
62
3
10
3155.06710029356
20
3133.46641538641
30
0
11
3154.83930029356
21
3133.44631538641
31
0
0
LINE
8
Základní_vrstva
62
3
10
3154.83930029356
20
3133.44631538641
30
0
11
3154.61150029356
21
3133.39271538641
31
0
0
LINE
8
Základní_vrstva
62
3
10
3154.61150029356
20
3133.39271538641
30
0
11
3154.47080029356
21
3133.19841538641
31
0
0
LINE
8
Základní_vrstva
62
3
10
3154.47080029356
20
3133.19841538641
30
0
11
3154.37030029356
21
3132.99071538641
31
0
0
LINE
8
Základní_vrstva
62
3
10
3154.37030029356
20
3132.99071538641
30
0
11
3154.21620029356
21
3132.83661538641
31
0
0
LINE
8
Základní_vrstva
62
3
10
3154.21620029356
20
3132.83661538641
30
0
11
3154.08220029356
21
3132.62891538641
31
0
0
LINE
8
Základní_vrstva
62
3
10
3154.08220029356
20
3132.62891538641
30
0
11
3154.10230029356
21
3132.40111538641
31
0
0
LINE
8
Základní_vrstva
62
3
10
3154.10230029356
20
3132.40111538641
30
0
11
3154.16260029356
21
3132.19341538641
31
0
0
LINE
8
Základní_vrstva
62
3
10
3154.16260029356
20
3132.19341538641
30
0
11
3154.13580029356
21
3131.97231538641
31
0
0
LINE
8
Základní_vrstva
62
3
10
3154.13580029356
20
3131.97231538641
30
0
11
3154.15590029356
21
3131.74451538641
31
0
0
LINE
8
Základní_vrstva
62
3
10
3154.15590029356
20
3131.74451538641
30
0
11
3154.32340029356
21
3131.57031538641
31
0
0
LINE
8
Základní_vrstva
62
3
10
3154.32340029356
20
3131.57031538641
30
0
11
3154.51770029356
21
3131.43631538641
31
0
0
LINE
8
Základní_vrstva
62
3
10
3154.51770029356
20
3131.43631538641
30
0
11
3154.64500029356
21
3131.25541538641
31
0
0
LINE
8
Základní_vrstva
62
3
10
3154.64500029356
20
3131.25541538641
30
0
11
3154.79240029356
21
3131.10131538641
31
0
0
LINE
8
Základní_vrstva
62
3
10
3154.79240029356
20
3131.10131538641
30
0
11
3155.02020029356
21
3131.08121538641
31
0
0
LINE
8
Základní_vrstva
62
3
10
3155.02020029356
20
3131.08121538641
30
0
11
3155.25470029356
21
3131.10131538641
31
0
0
LINE
8
Základní_vrstva
62
3
10
3155.25470029356
20
3131.10131538641
30
0
11
3155.46910029356
21
3131.04101538641
31
0
0
LINE
8
Základní_vrstva
62
3
10
3155.46910029356
20
3131.04101538641
30
0
11
3155.70360029356
21
3131.02091538641
31
0
0
LINE
8
Základní_vrstva
62
3
10
3155.70360029356
20
3131.02091538641
30
0
11
3155.89120029356
21
3131.14821538641
31
0
0
LINE
8
Základní_vrstva
62
3
10
3155.89120029356
20
3131.14821538641
30
0
11
3156.04530029356
21
3131.30901538641
31
0
0
LINE
8
Základní_vrstva
62
3
10
3156.04530029356
20
3131.30901538641
30
0
11
3156.25300029356
21
3131.40281538641
31
0
0
LINE
8
Základní_vrstva
62
3
10
3156.25300029356
20
3131.40281538641
30
0
11
3156.44730029356
21
3131.54351538641
31
0
0
LINE
8
Základní_vrstva
62
3
10
3156.44730029356
20
3131.54351538641
30
0
11
3156.51430029356
21
3131.77131538641
31
0
0
LINE
8
Základní_vrstva
62
3
10
3156.51430029356
20
3131.77131538641
30
0
11
3156.52770029356
21
3131.99911538641
31
0
0
LINE
8
Základní_vrstva
62
3
10
3156.52770029356
20
3131.99911538641
30
0
11
3156.62150029356
21
3132.21351538641
31
0
0
LINE
8
Základní_vrstva
62
3
10
3156.62150029356
20
3132.21351538641
30
0
11
3156.68180029356
21
3132.40781538641
31
0
0
CIRCLE
8
Základní_vrstva
62
3
10
3155.36190029356
20
3132.30061538641
30
0
40
0.111666666666679
0
LINE
8
Základní_vrstva
62
3
10
3161.53681904356
20
3133.79687788641
30
0
11
3161.45641904356
21
3133.98447788641
31
0
0
LINE
8
Základní_vrstva
62
3
10
3161.45641904356
20
3133.98447788641
30
0
11
3161.32241904356
21
3134.19217788641
31
0
0
LINE
8
Základní_vrstva
62
3
10
3161.32241904356
20
3134.19217788641
30
0
11
3161.26211904356
21
3134.41997788641
31
0
0
LINE
8
Základní_vrstva
62
3
10
3161.26211904356
20
3134.41997788641
30
0
11
3161.16831904356
21
3134.62097788641
31
0
0
LINE
8
Základní_vrstva
62
3
10
3161.16831904356
20
3134.62097788641
30
0
11
3160.95391904356
21
3134.72817788641
31
0
0
LINE
8
Základní_vrstva
62
3
10
3160.95391904356
20
3134.72817788641
30
0
11
3160.73281904356
21
3134.78847788641
31
0
0
LINE
8
Základní_vrstva
62
3
10
3160.73281904356
20
3134.78847788641
30
0
11
3160.55191904356
21
3134.91577788641
31
0
0
LINE
8
Základní_vrstva
62
3
10
3160.55191904356
20
3134.91577788641
30
0
11
3160.34421904356
21
3135.00957788641
31
0
0
LINE
8
Základní_vrstva
62
3
10
3160.34421904356
20
3135.00957788641
30
0
11
3160.12311904356
21
3134.94927788641
31
0
0
LINE
8
Základní_vrstva
62
3
10
3160.12311904356
20
3134.94927788641
30
0
11
3159.92881904356
21
3134.85547788641
31
0
0
LINE
8
Základní_vrstva
62
3
10
3159.92881904356
20
3134.85547788641
30
0
11
3159.70101904356
21
3134.83537788641
31
0
0
LINE
8
Základní_vrstva
62
3
10
3159.70101904356
20
3134.83537788641
30
0
11
3159.47321904356
21
3134.78177788641
31
0
0
LINE
8
Základní_vrstva
62
3
10
3159.47321904356
20
3134.78177788641
30
0
11
3159.33251904356
21
3134.58747788641
31
0
0
LINE
8
Základní_vrstva
62
3
10
3159.33251904356
20
3134.58747788641
30
0
11
3159.23201904356
21
3134.37977788641
31
0
0
LINE
8
Základní_vrstva
62
3
10
3159.23201904356
20
3134.37977788641
30
0
11
3159.07791904356
21
3134.22567788641
31
0
0
LINE
8
Základní_vrstva
62
3
10
3159.07791904356
20
3134.22567788641
30
0
11
3158.94391904356
21
3134.01797788641
31
0
0
LINE
8
Základní_vrstva
62
3
10
3158.94391904356
20
3134.01797788641
30
0
11
3158.96401904356
21
3133.79017788641
31
0
0
LINE
8
Základní_vrstva
62
3
10
3158.96401904356
20
3133.79017788641
30
0
11
3159.02431904356
21
3133.58247788641
31
0
0
LINE
8
Základní_vrstva
62
3
10
3159.02431904356
20
3133.58247788641
30
0
11
3158.99751904356
21
3133.36137788641
31
0
0
LINE
8
Základní_vrstva
62
3
10
3158.99751904356
20
3133.36137788641
30
0
11
3159.01761904356
21
3133.13357788641
31
0
0
LINE
8
Základní_vrstva
62
3
10
3159.01761904356
20
3133.13357788641
30
0
11
3159.18511904356
21
3132.95937788641
31
0
0
LINE
8
Základní_vrstva
62
3
10
3159.18511904356
20
3132.95937788641
30
0
11
3159.37941904356
21
3132.82537788641
31
0
0
LINE
8
Základní_vrstva
62
3
10
3159.37941904356
20
3132.82537788641
30
0
11
3159.50671904356
21
3132.64447788641
31
0
0
LINE
8
Základní_vrstva
62
3
10
3159.50671904356
20
3132.64447788641
30
0
11
3159.65411904356
21
3132.49037788641
31
0
0
LINE
8
Základní_vrstva
62
3
10
3159.65411904356
20
3132.49037788641
30
0
11
3159.88191904356
21
3132.47027788641
31
0
0
LINE
8
Základní_vrstva
62
3
10
3159.88191904356
20
3132.47027788641
30
0
11
3160.11641904356
21
3132.49037788641
31
0
0
LINE
8
Základní_vrstva
62
3
10
3160.11641904356
20
3132.49037788641
30
0
11
3160.33081904356
21
3132.43007788641
31
0
0
LINE
8
Základní_vrstva
62
3
10
3160.33081904356
20
3132.43007788641
30
0
11
3160.56531904356
21
3132.40997788641
31
0
0
LINE
8
Základní_vrstva
62
3
10
3160.56531904356
20
3132.40997788641
30
0
11
3160.75291904356
21
3132.53727788641
31
0
0
LINE
8
Základní_vrstva
62
3
10
3160.75291904356
20
3132.53727788641
30
0
11
3160.90701904356
21
3132.69807788641
31
0
0
LINE
8
Základní_vrstva
62
3
10
3160.90701904356
20
3132.69807788641
30
0
11
3161.11471904356
21
3132.79187788641
31
0
0
LINE
8
Základní_vrstva
62
3
10
3161.11471904356
20
3132.79187788641
30
0
11
3161.30901904356
21
3132.93257788641
31
0
0
LINE
8
Základní_vrstva
62
3
10
3161.30901904356
20
3132.93257788641
30
0
11
3161.37601904356
21
3133.16037788641
31
0
0
LINE
8
Základní_vrstva
62
3
10
3161.37601904356
20
3133.16037788641
30
0
11
3161.38941904356
21
3133.38817788641
31
0
0
LINE
8
Základní_vrstva
62
3
10
3161.38941904356
20
3133.38817788641
30
0
11
3161.48321904356
21
3133.60257788641
31
0
0
LINE
8
Základní_vrstva
62
3
10
3161.48321904356
20
3133.60257788641
30
0
11
3161.54351904356
21
3133.79687788641
31
0
0
CIRCLE
8
Základní_vrstva
62
3
10
3160.22361904356
20
3133.68967788641
30
0
40
0.111666666666679
0
LINE
8
Základní_vrstva
62
3
10
3166.79541279356
20
3134.98750288641
30
0
11
3166.71501279356
21
3135.17510288641
31
0
0
LINE
8
Základní_vrstva
62
3
10
3166.71501279356
20
3135.17510288641
30
0
11
3166.58101279356
21
3135.38280288641
31
0
0
LINE
8
Základní_vrstva
62
3
10
3166.58101279356
20
3135.38280288641
30
0
11
3166.52071279356
21
3135.61060288641
31
0
0
LINE
8
Základní_vrstva
62
3
10
3166.52071279356
20
3135.61060288641
30
0
11
3166.42691279356
21
3135.81160288641
31
0
0
LINE
8
Základní_vrstva
62
3
10
3166.42691279356
20
3135.81160288641
30
0
11
3166.21251279356
21
3135.91880288641
31
0
0
LINE
8
Základní_vrstva
62
3
10
3166.21251279356
20
3135.91880288641
30
0
11
3165.99141279356
21
3135.97910288641
31
0
0
LINE
8
Základní_vrstva
62
3
10
3165.99141279356
20
3135.97910288641
30
0
11
3165.81051279356
21
3136.10640288641
31
0
0
LINE
8
Základní_vrstva
62
3
10
3165.81051279356
20
3136.10640288641
30
0
11
3165.60281279356
21
3136.20020288641
31
0
0
LINE
8
Základní_vrstva
62
3
10
3165.60281279356
20
3136.20020288641
30
0
11
3165.38171279356
21
3136.13990288641
31
0
0
LINE
8
Základní_vrstva
62
3
10
3165.38171279356
20
3136.13990288641
30
0
11
3165.18741279356
21
3136.04610288641
31
0
0
LINE
8
Základní_vrstva
62
3
10
3165.18741279356
20
3136.04610288641
30
0
11
3164.95961279356
21
3136.02600288641
31
0
0
LINE
8
Základní_vrstva
62
3
10
3164.95961279356
20
3136.02600288641
30
0
11
3164.73181279356
21
3135.97240288641
31
0
0
LINE
8
Základní_vrstva
62
3
10
3164.73181279356
20
3135.97240288641
30
0
11
3164.59111279356
21
3135.77810288641
31
0
0
LINE
8
Základní_vrstva
62
3
10
3164.59111279356
20
3135.77810288641
30
0
11
3164.49061279356
21
3135.57040288641
31
0
0
LINE
8
Základní_vrstva
62
3
10
3164.49061279356
20
3135.57040288641
30
0
11
3164.33651279356
21
3135.41630288641
31
0
0
LINE
8
Základní_vrstva
62
3
10
3164.33651279356
20
3135.41630288641
30
0
11
3164.20251279356
21
3135.20860288641
31
0
0
LINE
8
Základní_vrstva
62
3
10
3164.20251279356
20
3135.20860288641
30
0
11
3164.22261279356
21
3134.98080288641
31
0
0
LINE
8
Základní_vrstva
62
3
10
3164.22261279356
20
3134.98080288641
30
0
11
3164.28291279356
21
3134.77310288641
31
0
0
LINE
8
Základní_vrstva
62
3
10
3164.28291279356
20
3134.77310288641
30
0
11
3164.25611279356
21
3134.55200288641
31
0
0
LINE
8
Základní_vrstva
62
3
10
3164.25611279356
20
3134.55200288641
30
0
11
3164.27621279356
21
3134.32420288641
31
0
0
LINE
8
Základní_vrstva
62
3
10
3164.27621279356
20
3134.32420288641
30
0
11
3164.44371279356
21
3134.15000288641
31
0
0
LINE
8
Základní_vrstva
62
3
10
3164.44371279356
20
3134.15000288641
30
0
11
3164.63801279356
21
3134.01600288641
31
0
0
LINE
8
Základní_vrstva
62
3
10
3164.63801279356
20
3134.01600288641
30
0
11
3164.76531279356
21
3133.83510288641
31
0
0
LINE
8
Základní_vrstva
62
3
10
3164.76531279356
20
3133.83510288641
30
0
11
3164.91271279356
21
3133.68100288641
31
0
0
LINE
8
Základní_vrstva
62
3
10
3164.91271279356
20
3133.68100288641
30
0
11
3165.14051279356
21
3133.66090288641
31
0
0
LINE
8
Základní_vrstva
62
3
10
3165.14051279356
20
3133.66090288641
30
0
11
3165.37501279356
21
3133.68100288641
31
0
0
LINE
8
Základní_vrstva
62
3
10
3165.37501279356
20
3133.68100288641
30
0
11
3165.58941279356
21
3133.62070288641
31
0
0
LINE
8
Základní_vrstva
62
3
10
3165.58941279356
20
3133.62070288641
30
0
11
3165.82391279356
21
3133.60060288641
31
0
0
LINE
8
Základní_vrstva
62
3
10
3165.82391279356
20
3133.60060288641
30
0
11
3166.01151279356
21
3133.72790288641
31
0
0
LINE
8
Základní_vrstva
62
3
10
3166.01151279356
20
3133.72790288641
30
0
11
3166.16561279356
21
3133.88870288641
31
0
0
LINE
8
Základní_vrstva
62
3
10
3166.16561279356
20
3133.88870288641
30
0
11
3166.37331279356
21
3133.98250288641
31
0
0
LINE
8
Základní_vrstva
62
3
10
3166.37331279356
20
3133.98250288641
30
0
11
3166.56761279356
21
3134.12320288641
31
0
0
LINE
8
Základní_vrstva
62
3
10
3166.56761279356
20
3134.12320288641
30
0
11
3166.63461279356
21
3134.35100288641
31
0
0
LINE
8
Základní_vrstva
62
3
10
3166.63461279356
20
3134.35100288641
30
0
11
3166.64801279356
21
3134.57880288641
31
0
0
LINE
8
Základní_vrstva
62
3
10
3166.64801279356
20
3134.57880288641
30
0
11
3166.74181279356
21
3134.79320288641
31
0
0
LINE
8
Základní_vrstva
62
3
10
3166.74181279356
20
3134.79320288641
30
0
11
3166.80211279356
21
3134.98750288641
31
0
0
CIRCLE
8
Základní_vrstva
62
3
10
3165.48221279356
20
3134.88030288641
30
0
40
0.111666666666679
0
TEXT
8
Základní_vrstva
62
0
10
2996.3885085159
20
3015.94600960604
30
0
40
2.5
50
0
11
2996.3885085159
21
3015.94600960604
31
0
1
Legenda
72
0
73
3
0
TEXT
8
Základní_vrstva
62
3
10
2995.8437074816
20
3005.68332401571
30
0
40
3
50
0
11
2995.8437074816
21
3005.68332401571
31
0
1
1   javor mlieèny (Acer platanoides´Columnare´)
72
0
73
3
0
LINE
8
Základní_vrstva
62
3
10
2806.20955654356
20
3041.31858413641
30
0
11
2798.47205654356
21
3048.95686538641
31
0
0
TEXT
8
Základní_vrstva
62
3
10
2806.40955654356
20
3041.11858413641
30
0
40
3
50
0
11
2806.40955654356
21
3041.11858413641
31
0
1
1
72
0
73
3
0
POINT
8
Základní_vrstva
62
0
10
2827.44393154356
20
3057.39045913641
30
0
0
POINT
8
Základní_vrstva
62
0
10
2821.09393154356
20
3055.70374038641
30
0
0
LINE
8
Základní_vrstva
62
0
10
2827.47602187004
20
3057.26964849555
30
0
11
2831.18427436157
21
3043.30916852743
31
0
0
LINE
8
Základní_vrstva
62
0
10
2821.12602187004
20
3055.58292974555
30
0
11
2824.83427436157
21
3041.62244977743
31
0
0
TEXT
8
Základní_vrstva
62
0
10
2824.63395270639
20
3045.03540752461
30
0
40
1.5
50
374.875682001641
11
2824.63395270639
21
3045.03540752461
31
0
1
6,6m
72
0
73
3
0
SOLID
8
Základní_vrstva
62
0
10
2831.12009370861
20
3043.55078980916
30
0
11
2830.66530816156
21
3043.31529620616
31
0
12
2830.60839412874
22
3043.52956080032
32
0
13
2830.60839412874
23
3043.52956080032
33
0
0
SOLID
8
Základní_vrstva
62
0
10
2824.77009370861
20
3041.86407105916
30
0
11
2825.22487925566
21
3042.09956466216
31
0
12
2825.28179328849
22
3041.885300068
32
0
13
2825.28179328849
23
3041.885300068
33
0
0
LINE
8
Základní_vrstva
62
0
10
2830.63685114515
20
3043.42242850324
30
0
11
2825.25333627207
21
3041.99243236508
31
0
0
POLYLINE
8
Základní_vrstva
62
0
66
1
0
VERTEX
8
Základní_vrstva
10
2758.5418491097
20
3015.21185067192
30
0
0
VERTEX
8
Základní_vrstva
10
2958.5418491097
20
3015.21185067192
30
0
0
VERTEX
8
Základní_vrstva
10
2958.5418491097
20
2959.89719525912
30
0
0
VERTEX
8
Základní_vrstva
10
2758.5418491097
20
2959.89719525912
30
0
0
VERTEX
8
Základní_vrstva
10
2758.5418491097
20
3015.21185067192
30
0
0
SEQEND
0
LINE
8
Základní_vrstva
62
0
10
2881.0698491097
20
3015.21185067192
30
0
11
2881.0698491097
21
2959.89719525912
31
0
0
LINE
8
Základní_vrstva
62
0
10
2881.0698491097
20
3005.99274143645
30
0
11
2958.5418491097
21
3005.99274143645
31
0
0
LINE
8
Základní_vrstva
62
0
10
2758.5418491097
20
2996.77363220099
30
0
11
2958.5418491097
21
2996.77363220099
31
0
0
LINE
8
Základní_vrstva
62
0
10
2881.0698491097
20
2987.55452296552
30
0
11
2958.5418491097
21
2987.55452296552
31
0
0
LINE
8
Základní_vrstva
62
0
10
2758.5418491097
20
2978.33541373005
30
0
11
2958.5418491097
21
2978.33541373005
31
0
0
LINE
8
Základní_vrstva
62
0
10
2881.0698491097
20
2969.11630449459
30
0
11
2958.5418491097
21
2969.11630449459
31
0
0
LINE
8
Základní_vrstva
62
0
10
2900.0198491097
20
3005.99274143645
30
0
11
2900.0198491097
21
2959.89719525912
31
0
0
TEXT
8
Základní_vrstva
62
0
10
2759.5418491097
20
3008.24274143645
30
0
40
2.25
50
0
11
2759.5418491097
21
3008.24274143645
31
0
1
Projekt pozemkových úprav Ve¾ký Ruskov (okr. TV, k.ú. V. Ruskov)
72
0
73
3
0
TEXT
8
Základní_vrstva
62
0
10
2882.0698491097
20
3012.35229605419
30
0
40
1.75
50
0
11
2882.0698491097
21
3012.35229605419
31
0
1
Objednávate¾ : LUPO-GEO s.r.o., J.Husa 1460/23, TV
72
0
73
3
0
TEXT
8
Základní_vrstva
62
0
10
2882.0698491097
20
3003.13318681872
30
0
40
1.75
50
0
11
2882.0698491097
21
3003.13318681872
31
0
1
Zhotovite¾
72
0
73
3
0
TEXT
8
Základní_vrstva
62
0
10
2901.0198491097
20
3003.13318681872
30
0
40
1.75
50
0
11
2901.0198491097
21
3003.13318681872
31
0
1
STAFIN s.r.o., B.Nemcovej 3538/3, TV
72
0
73
3
0
TEXT
8
Základní_vrstva
62
0
10
2759.5418491097
20
2989.80452296552
30
0
40
2.25
50
0
11
2759.5418491097
21
2989.80452296552
31
0
1
Ekologické, protierózne a krajinotvorné zariadenia a opatrenia
72
0
73
3
0
TEXT
8
Základní_vrstva
62
0
10
2882.0698491097
20
2993.91407758325
30
0
40
1.75
50
0
11
2882.0698491097
21
2993.91407758325
31
0
1
Vypracoval
72
0
73
3
0
TEXT
8
Základní_vrstva
62
0
10
2901.0198491097
20
2993.91407758325
30
0
40
1.75
50
0
11
2901.0198491097
21
2993.91407758325
31
0
1
Ing. Estera Schwartzová
72
0
73
3
0
TEXT
8
Základní_vrstva
62
0
10
2882.0698491097
20
2984.69496834779
30
0
40
1.75
50
0
11
2882.0698491097
21
2984.69496834779
31
0
1
Dátum
72
0
73
3
0
TEXT
8
Základní_vrstva
62
0
10
2901.0198491097
20
2984.69496834779
30
0
40
1.75
50
0
11
2901.0198491097
21
2984.69496834779
31
0
1
20.5.2008
72
0
73
3
0
TEXT
8
Základní_vrstva
62
0
10
2759.5418491097
20
2971.86630449459
30
0
40
2.75
50
0
11
2759.5418491097
21
2971.86630449459
31
0
1
Výkres : Ekostabilizaèná plocha SO ZN 2
72
0
73
3
0
TEXT
8
Základní_vrstva
62
0
10
2882.0698491097
20
2975.47585911232
30
0
40
1.75
50
0
11
2882.0698491097
21
2975.47585911232
31
0
1
Formát
72
0
73
3
0
TEXT
8
Základní_vrstva
62
0
10
2901.0198491097
20
2975.47585911232
30
0
40
1.75
50
0
11
2901.0198491097
21
2975.47585911232
31
0
1
A3
72
0
73
3
0
TEXT
8
Základní_vrstva
62
0
10
2882.0698491097
20
2966.25674987685
30
0
40
1.75
50
0
11
2882.0698491097
21
2966.25674987685
31
0
1
Mierka
72
0
73
3
0
TEXT
8
Základní_vrstva
62
0
10
2901.0198491097
20
2966.25674987685
30
0
40
1.75
50
0
11
2901.0198491097
21
2966.25674987685
31
0
1
1:1000
72
0
73
3
0
POLYLINE
8
Základní_vrstva
62
0
66
1
0
VERTEX
8
Základní_vrstva
10
2757.77191829481
20
3016.58858754984
30
0
0
VERTEX
8
Základní_vrstva
10
2959.76033115906
20
3016.58858754984
30
0
0
VERTEX
8
Základní_vrstva
10
2959.76033115906
20
2958.75245832269
30
0
0
VERTEX
8
Základní_vrstva
10
2757.77191829481
20
2958.75245832269
30
0
0
VERTEX
8
Základní_vrstva
10
2757.77191829481
20
3016.58858754984
30
0
0
SEQEND
0
POLYLINE
8
Základní_vrstva
62
0
66
1
0
VERTEX
8
Základní_vrstva
10
2994.46152614436
20
3017.17725578843
30
0
0
VERTEX
8
Základní_vrstva
10
3107.3552754141
20
3017.17725578843
30
0
0
VERTEX
8
Základní_vrstva
10
3107.3552754141
20
2996.18084419918
30
0
0
VERTEX
8
Základní_vrstva
10
2994.46152614436
20
2996.18084419918
30
0
0
VERTEX
8
Základní_vrstva
10
2994.46152614436
20
3017.17725578843
30
0
0
SEQEND
0
POLYLINE
8
Základní_vrstva
62
0
66
1
0
VERTEX
8
Základní_vrstva
10
2757.15261958528
20
3285.13889141318
30
0
0
VERTEX
8
Základní_vrstva
10
3172.74782378705
20
3285.13889141318
30
0
0
VERTEX
8
Základní_vrstva
10
3172.74782378705
20
3031.98822952346
30
0
0
VERTEX
8
Základní_vrstva
10
2757.15261958528
20
3031.98822952346
30
0
0
VERTEX
8
Základní_vrstva
10
2757.15261958528
20
3285.13889141318
30
0
0
SEQEND
0
ENDSEC
0
EOF
