0
SECTION
2
HEADER
9
$ACADVER
1
AC1009
0
ENDSEC
0
SECTION
2
TABLES
0
TABLE
2
LAYER
70
1
0
LAYER
2
Základní_vrstva
62
255
70
0
6
CONTINUOUS
0
ENDTAB
0
ENDSEC
0
SECTION
2
ENTITIES
0
LINE
8
Základní_vrstva
62
3
10
2014.87588402214
20
5150.14978173145
30
0
11
2025.52074877049
21
5160.53501563228
31
0
0
TEXT
8
Základní_vrstva
62
3
10
1980.08535045436
20
5150.66904342649
30
0
40
3
50
0
11
1980.08535045436
21
5150.66904342649
31
0
1
trávnatá plocha
72
0
73
3
0
POLYLINE
8
Základní_vrstva
62
0
66
1
0
VERTEX
8
Základní_vrstva
10
1932.77801043853
20
4951.59003205274
30
0
0
VERTEX
8
Základní_vrstva
10
2132.77801043853
20
4951.59003205274
30
0
0
VERTEX
8
Základní_vrstva
10
2132.77801043853
20
4896.27537663993
30
0
0
VERTEX
8
Základní_vrstva
10
1932.77801043853
20
4896.27537663993
30
0
0
VERTEX
8
Základní_vrstva
10
1932.77801043853
20
4951.59003205274
30
0
0
SEQEND
0
LINE
8
Základní_vrstva
62
0
10
2055.30601043853
20
4951.59003205274
30
0
11
2055.30601043853
21
4896.27537663993
31
0
0
LINE
8
Základní_vrstva
62
0
10
2055.30601043853
20
4942.37092281727
30
0
11
2132.77801043853
21
4942.37092281727
31
0
0
LINE
8
Základní_vrstva
62
0
10
1932.77801043853
20
4933.1518135818
30
0
11
2132.77801043853
21
4933.1518135818
31
0
0
LINE
8
Základní_vrstva
62
0
10
2055.30601043853
20
4923.93270434633
30
0
11
2132.77801043853
21
4923.93270434633
31
0
0
LINE
8
Základní_vrstva
62
0
10
1932.77801043853
20
4914.71359511087
30
0
11
2132.77801043853
21
4914.71359511087
31
0
0
LINE
8
Základní_vrstva
62
0
10
2055.30601043853
20
4905.4944858754
30
0
11
2132.77801043853
21
4905.4944858754
31
0
0
LINE
8
Základní_vrstva
62
0
10
2074.25601043853
20
4942.37092281727
30
0
11
2074.25601043853
21
4896.27537663993
31
0
0
TEXT
8
Základní_vrstva
62
0
10
1933.77801043853
20
4944.62092281727
30
0
40
2.25
50
0
11
1933.77801043853
21
4944.62092281727
31
0
1
Projekt pozemkových úprav Ve¾ký Ruskov (okr. TV, k.ú. V. Ruskov)
72
0
73
3
0
TEXT
8
Základní_vrstva
62
0
10
2056.30601043853
20
4948.730477435
30
0
40
1.75
50
0
11
2056.30601043853
21
4948.730477435
31
0
1
Objednávate¾ : LUPO-GEO s.r.o., J.Husa 1460/23, TV
72
0
73
3
0
TEXT
8
Základní_vrstva
62
0
10
2056.30601043853
20
4939.51136819954
30
0
40
1.75
50
0
11
2056.30601043853
21
4939.51136819954
31
0
1
Zhotovite¾
72
0
73
3
0
TEXT
8
Základní_vrstva
62
0
10
2075.25601043853
20
4939.51136819954
30
0
40
1.75
50
0
11
2075.25601043853
21
4939.51136819954
31
0
1
STAFIN s.r.o., B.Nemcovej 3538/3, TV
72
0
73
3
0
TEXT
8
Základní_vrstva
62
0
10
1933.77801043853
20
4926.18270434633
30
0
40
2.25
50
0
11
1933.77801043853
21
4926.18270434633
31
0
1
Ekologické, protierózne a krajinotvorné zariadenia a opatrenia
72
0
73
3
0
TEXT
8
Základní_vrstva
62
0
10
2056.30601043853
20
4930.29225896407
30
0
40
1.75
50
0
11
2056.30601043853
21
4930.29225896407
31
0
1
Vypracoval
72
0
73
3
0
TEXT
8
Základní_vrstva
62
0
10
2075.25601043853
20
4930.29225896407
30
0
40
1.75
50
0
11
2075.25601043853
21
4930.29225896407
31
0
1
Ing. Estera Schwartzová
72
0
73
3
0
TEXT
8
Základní_vrstva
62
0
10
2056.30601043853
20
4921.0731497286
30
0
40
1.75
50
0
11
2056.30601043853
21
4921.0731497286
31
0
1
Dátum
72
0
73
3
0
TEXT
8
Základní_vrstva
62
0
10
2075.25601043853
20
4921.0731497286
30
0
40
1.75
50
0
11
2075.25601043853
21
4921.0731497286
31
0
1
20.5.2008
72
0
73
3
0
TEXT
8
Základní_vrstva
62
0
10
1933.77801043853
20
4908.2444858754
30
0
40
2.75
50
0
11
1933.77801043853
21
4908.2444858754
31
0
1
Výkres : Ekostabilizaèná plocha SO ZN 3
72
0
73
3
0
TEXT
8
Základní_vrstva
62
0
10
2056.30601043853
20
4911.85404049313
30
0
40
1.75
50
0
11
2056.30601043853
21
4911.85404049313
31
0
1
Formát
72
0
73
3
0
TEXT
8
Základní_vrstva
62
0
10
2075.25601043853
20
4911.85404049313
30
0
40
1.75
50
0
11
2075.25601043853
21
4911.85404049313
31
0
1
A3
72
0
73
3
0
TEXT
8
Základní_vrstva
62
0
10
2056.30601043853
20
4902.63493125767
30
0
40
1.75
50
0
11
2056.30601043853
21
4902.63493125767
31
0
1
Mierka
72
0
73
3
0
TEXT
8
Základní_vrstva
62
0
10
2075.25601043853
20
4902.63493125767
30
0
40
1.75
50
0
11
2075.25601043853
21
4902.63493125767
31
0
1
1:1000
72
0
73
3
0
POLYLINE
8
Základní_vrstva
62
0
66
1
0
VERTEX
8
Základní_vrstva
10
1932.10963059962
20
4952.41146978876
30
0
0
VERTEX
8
Základní_vrstva
10
2134.00027486324
20
4952.41146978876
30
0
0
VERTEX
8
Základní_vrstva
10
2134.00027486324
20
4894.84320900571
30
0
0
VERTEX
8
Základní_vrstva
10
1932.10963059962
20
4894.84320900571
30
0
0
VERTEX
8
Základní_vrstva
10
1932.10963059962
20
4952.41146978876
30
0
0
SEQEND
0
POLYLINE
8
Základní_vrstva
62
0
66
1
0
VERTEX
8
Základní_vrstva
10
1896.15191590009
20
5288.36293844037
30
0
0
VERTEX
8
Základní_vrstva
10
2179.06681221445
20
5288.36293844037
30
0
0
VERTEX
8
Základní_vrstva
10
2179.06681221445
20
4995.97808997858
30
0
0
VERTEX
8
Základní_vrstva
10
1896.15191590009
20
4995.97808997858
30
0
0
VERTEX
8
Základní_vrstva
10
1896.15191590009
20
5288.36293844037
30
0
0
SEQEND
0
ENDSEC
0
EOF
