0
SECTION
2
HEADER
9
$ACADVER
1
AC1009
0
ENDSEC
0
SECTION
2
TABLES
0
TABLE
2
LAYER
70
1
0
LAYER
2
Základní_vrstva
62
255
70
0
6
CONTINUOUS
0
ENDTAB
0
ENDSEC
0
SECTION
2
ENTITIES
0
LINE
8
Základní_vrstva
62
161
10
2941.74586258076
20
4289.32331935962
30
0
11
2941.70671258076
21
4289.50601935962
31
0
0
LINE
8
Základní_vrstva
62
161
10
2941.70671258076
20
4289.50601935962
30
0
11
2941.58926258076
21
4289.68871935962
31
0
0
LINE
8
Základní_vrstva
62
161
10
2941.58926258076
20
4289.68871935962
30
0
11
2941.32826258076
21
4290.09326935962
31
0
0
LINE
8
Základní_vrstva
62
161
10
2941.32826258076
20
4290.09326935962
30
0
11
2941.21081258076
21
4290.53696935962
31
0
0
LINE
8
Základní_vrstva
62
161
10
2941.21081258076
20
4290.53696935962
30
0
11
2941.15861258076
21
4290.74576935962
31
0
0
LINE
8
Základní_vrstva
62
161
10
2941.15861258076
20
4290.74576935962
30
0
11
2941.02811258076
21
4290.92846935962
31
0
0
LINE
8
Základní_vrstva
62
161
10
2941.02811258076
20
4290.92846935962
30
0
11
2940.83888758076
21
4291.06549435962
31
0
0
LINE
8
Základní_vrstva
62
161
10
2940.83888758076
20
4291.06549435962
30
0
11
2940.61051258076
21
4291.13726935962
31
0
0
LINE
8
Základní_vrstva
62
161
10
2940.61051258076
20
4291.13726935962
30
0
11
2940.17986258076
21
4291.25471935962
31
0
0
LINE
8
Základní_vrstva
62
161
10
2940.17986258076
20
4291.25471935962
30
0
11
2939.82751258076
21
4291.50266935962
31
0
0
LINE
8
Základní_vrstva
62
161
10
2939.82751258076
20
4291.50266935962
30
0
11
2939.64155008076
21
4291.63316935962
31
0
0
LINE
8
Základní_vrstva
62
161
10
2939.64155008076
20
4291.63316935962
30
0
11
2939.42296258076
21
4291.68536935962
31
0
0
LINE
8
Základní_vrstva
62
161
10
2939.42296258076
20
4291.68536935962
30
0
11
2939.19785008076
21
4291.66253185962
31
0
0
LINE
8
Základní_vrstva
62
161
10
2939.19785008076
20
4291.66253185962
30
0
11
2938.99231258076
21
4291.56791935962
31
0
0
LINE
8
Základní_vrstva
62
161
10
2938.99231258076
20
4291.56791935962
30
0
11
2938.61386258076
21
4291.38521935962
31
0
0
LINE
8
Základní_vrstva
62
161
10
2938.61386258076
20
4291.38521935962
30
0
11
2938.17016258076
21
4291.34606935962
31
0
0
LINE
8
Základní_vrstva
62
161
10
2938.17016258076
20
4291.34606935962
30
0
11
2937.92873758076
21
4291.32649435962
31
0
0
LINE
8
Základní_vrstva
62
161
10
2937.92873758076
20
4291.32649435962
30
0
11
2937.72646258076
21
4291.24166935962
31
0
0
LINE
8
Základní_vrstva
62
161
10
2937.72646258076
20
4291.24166935962
30
0
11
2937.56660008076
21
4291.08833185962
31
0
0
LINE
8
Základní_vrstva
62
161
10
2937.56660008076
20
4291.08833185962
30
0
11
2937.45241258076
21
4290.86321935962
31
0
0
LINE
8
Základní_vrstva
62
161
10
2937.45241258076
20
4290.86321935962
30
0
11
2937.25666258076
21
4290.45866935962
31
0
0
LINE
8
Základní_vrstva
62
161
10
2937.25666258076
20
4290.45866935962
30
0
11
2936.95651258076
21
4290.15851935962
31
0
0
LINE
8
Základní_vrstva
62
161
10
2936.95651258076
20
4290.15851935962
30
0
11
2936.79338758076
21
4289.97908185962
31
0
0
LINE
8
Základní_vrstva
62
161
10
2936.79338758076
20
4289.97908185962
30
0
11
2936.69551258076
21
4289.75396935962
31
0
0
LINE
8
Základní_vrstva
62
161
10
2936.69551258076
20
4289.75396935962
30
0
11
2936.67267508076
21
4289.51906935962
31
0
0
LINE
8
Základní_vrstva
62
161
10
2936.67267508076
20
4289.51906935962
30
0
11
2936.73466258076
21
4289.31026935962
31
0
0
LINE
8
Základní_vrstva
62
161
10
2936.73466258076
20
4289.31026935962
30
0
11
2936.85211258076
21
4288.90571935962
31
0
0
LINE
8
Základní_vrstva
62
161
10
2936.85211258076
20
4288.90571935962
30
0
11
2936.79991258076
21
4288.47506935962
31
0
0
LINE
8
Základní_vrstva
62
161
10
2936.79991258076
20
4288.47506935962
30
0
11
2936.77707508076
21
4288.25321935962
31
0
0
LINE
8
Základní_vrstva
62
161
10
2936.77707508076
20
4288.25321935962
30
0
11
2936.83906258076
21
4288.03136935962
31
0
0
LINE
8
Základní_vrstva
62
161
10
2936.83906258076
20
4288.03136935962
30
0
11
2936.97282508076
21
4287.83561935962
31
0
0
LINE
8
Základní_vrstva
62
161
10
2936.97282508076
20
4287.83561935962
30
0
11
2937.16531258076
21
4287.69206935962
31
0
0
LINE
8
Základní_vrstva
62
161
10
2937.16531258076
20
4287.69206935962
30
0
11
2937.54376258076
21
4287.43106935962
31
0
0
LINE
8
Základní_vrstva
62
161
10
2937.54376258076
20
4287.43106935962
30
0
11
2937.79171258076
21
4287.07871935962
31
0
0
LINE
8
Základní_vrstva
62
161
10
2937.79171258076
20
4287.07871935962
30
0
11
2937.90916258076
21
4286.89928185962
31
0
0
LINE
8
Základní_vrstva
62
161
10
2937.90916258076
20
4286.89928185962
30
0
11
2938.07881258076
21
4286.77856935962
31
0
0
LINE
8
Základní_vrstva
62
161
10
2938.07881258076
20
4286.77856935962
30
0
11
2938.28761258076
21
4286.72310685962
31
0
0
LINE
8
Základní_vrstva
62
161
10
2938.28761258076
20
4286.72310685962
30
0
11
2938.52251258076
21
4286.73941935962
31
0
0
LINE
8
Základní_vrstva
62
161
10
2938.52251258076
20
4286.73941935962
30
0
11
2938.97926258076
21
4286.77856935962
31
0
0
LINE
8
Základní_vrstva
62
161
10
2938.97926258076
20
4286.77856935962
30
0
11
2939.39686258076
21
4286.66111935962
31
0
0
LINE
8
Základní_vrstva
62
161
10
2939.39686258076
20
4286.66111935962
30
0
11
2939.61545008076
21
4286.59913185962
31
0
0
LINE
8
Základní_vrstva
62
161
10
2939.61545008076
20
4286.59913185962
30
0
11
2939.85361258076
21
4286.62196935962
31
0
0
LINE
8
Základní_vrstva
62
161
10
2939.85361258076
20
4286.62196935962
30
0
11
2940.06893758076
21
4286.71658185962
31
0
0
LINE
8
Základní_vrstva
62
161
10
2940.06893758076
20
4286.71658185962
30
0
11
2940.21901258076
21
4286.86991935962
31
0
0
LINE
8
Základní_vrstva
62
161
10
2940.21901258076
20
4286.86991935962
30
0
11
2940.51916258076
21
4287.18311935962
31
0
0
LINE
8
Základní_vrstva
62
161
10
2940.51916258076
20
4287.18311935962
30
0
11
2940.92371258076
21
4287.36581935962
31
0
0
LINE
8
Základní_vrstva
62
161
10
2940.92371258076
20
4287.36581935962
30
0
11
2941.12925008076
21
4287.46043185962
31
0
0
LINE
8
Základní_vrstva
62
161
10
2941.12925008076
20
4287.46043185962
30
0
11
2941.30216258076
21
4287.63986935962
31
0
0
LINE
8
Základní_vrstva
62
161
10
2941.30216258076
20
4287.63986935962
30
0
11
2941.41308758076
21
4287.86171935962
31
0
0
LINE
8
Základní_vrstva
62
161
10
2941.41308758076
20
4287.86171935962
30
0
11
2941.43266258076
21
4288.08356935962
31
0
0
LINE
8
Základní_vrstva
62
161
10
2941.43266258076
20
4288.08356935962
30
0
11
2941.45876258076
21
4288.52726935962
31
0
0
LINE
8
Základní_vrstva
62
161
10
2941.45876258076
20
4288.52726935962
30
0
11
2941.64146258076
21
4288.94486935962
31
0
0
LINE
8
Základní_vrstva
62
161
10
2941.64146258076
20
4288.94486935962
30
0
11
2941.73607508076
21
4289.13735685962
31
0
0
LINE
8
Základní_vrstva
62
161
10
2941.73607508076
20
4289.13735685962
30
0
11
2941.75891258076
21
4289.32331935962
31
0
0
CIRCLE
8
Základní_vrstva
62
161
10
2939.18806258076
20
4289.11451935962
30
0
40
0.2175000000002
0
LINE
8
Základní_vrstva
62
161
10
2941.84508133076
20
4293.58972560962
30
0
11
2941.80593133076
21
4293.77242560962
31
0
0
LINE
8
Základní_vrstva
62
161
10
2941.80593133076
20
4293.77242560962
30
0
11
2941.68848133076
21
4293.95512560962
31
0
0
LINE
8
Základní_vrstva
62
161
10
2941.68848133076
20
4293.95512560962
30
0
11
2941.42748133076
21
4294.35967560962
31
0
0
LINE
8
Základní_vrstva
62
161
10
2941.42748133076
20
4294.35967560962
30
0
11
2941.31003133076
21
4294.80337560962
31
0
0
LINE
8
Základní_vrstva
62
161
10
2941.31003133076
20
4294.80337560962
30
0
11
2941.25783133076
21
4295.01217560962
31
0
0
LINE
8
Základní_vrstva
62
161
10
2941.25783133076
20
4295.01217560962
30
0
11
2941.12733133076
21
4295.19487560962
31
0
0
LINE
8
Základní_vrstva
62
161
10
2941.12733133076
20
4295.19487560962
30
0
11
2940.93810633076
21
4295.33190060962
31
0
0
LINE
8
Základní_vrstva
62
161
10
2940.93810633076
20
4295.33190060962
30
0
11
2940.70973133076
21
4295.40367560962
31
0
0
LINE
8
Základní_vrstva
62
161
10
2940.70973133076
20
4295.40367560962
30
0
11
2940.27908133076
21
4295.52112560962
31
0
0
LINE
8
Základní_vrstva
62
161
10
2940.27908133076
20
4295.52112560962
30
0
11
2939.92673133076
21
4295.76907560962
31
0
0
LINE
8
Základní_vrstva
62
161
10
2939.92673133076
20
4295.76907560962
30
0
11
2939.74076883076
21
4295.89957560962
31
0
0
LINE
8
Základní_vrstva
62
161
10
2939.74076883076
20
4295.89957560962
30
0
11
2939.52218133076
21
4295.95177560962
31
0
0
LINE
8
Základní_vrstva
62
161
10
2939.52218133076
20
4295.95177560962
30
0
11
2939.29706883076
21
4295.92893810962
31
0
0
LINE
8
Základní_vrstva
62
161
10
2939.29706883076
20
4295.92893810962
30
0
11
2939.09153133076
21
4295.83432560962
31
0
0
LINE
8
Základní_vrstva
62
161
10
2939.09153133076
20
4295.83432560962
30
0
11
2938.71308133076
21
4295.65162560962
31
0
0
LINE
8
Základní_vrstva
62
161
10
2938.71308133076
20
4295.65162560962
30
0
11
2938.26938133076
21
4295.61247560962
31
0
0
LINE
8
Základní_vrstva
62
161
10
2938.26938133076
20
4295.61247560962
30
0
11
2938.02795633076
21
4295.59290060962
31
0
0
LINE
8
Základní_vrstva
62
161
10
2938.02795633076
20
4295.59290060962
30
0
11
2937.82568133076
21
4295.50807560962
31
0
0
LINE
8
Základní_vrstva
62
161
10
2937.82568133076
20
4295.50807560962
30
0
11
2937.66581883076
21
4295.35473810962
31
0
0
LINE
8
Základní_vrstva
62
161
10
2937.66581883076
20
4295.35473810962
30
0
11
2937.55163133076
21
4295.12962560962
31
0
0
LINE
8
Základní_vrstva
62
161
10
2937.55163133076
20
4295.12962560962
30
0
11
2937.35588133076
21
4294.72507560962
31
0
0
LINE
8
Základní_vrstva
62
161
10
2937.35588133076
20
4294.72507560962
30
0
11
2937.05573133076
21
4294.42492560962
31
0
0
LINE
8
Základní_vrstva
62
161
10
2937.05573133076
20
4294.42492560962
30
0
11
2936.89260633076
21
4294.24548810962
31
0
0
LINE
8
Základní_vrstva
62
161
10
2936.89260633076
20
4294.24548810962
30
0
11
2936.79473133076
21
4294.02037560962
31
0
0
LINE
8
Základní_vrstva
62
161
10
2936.79473133076
20
4294.02037560962
30
0
11
2936.77189383076
21
4293.78547560962
31
0
0
LINE
8
Základní_vrstva
62
161
10
2936.77189383076
20
4293.78547560962
30
0
11
2936.83388133076
21
4293.57667560962
31
0
0
LINE
8
Základní_vrstva
62
161
10
2936.83388133076
20
4293.57667560962
30
0
11
2936.95133133076
21
4293.17212560962
31
0
0
LINE
8
Základní_vrstva
62
161
10
2936.95133133076
20
4293.17212560962
30
0
11
2936.89913133076
21
4292.74147560962
31
0
0
LINE
8
Základní_vrstva
62
161
10
2936.89913133076
20
4292.74147560962
30
0
11
2936.87629383076
21
4292.51962560962
31
0
0
LINE
8
Základní_vrstva
62
161
10
2936.87629383076
20
4292.51962560962
30
0
11
2936.93828133076
21
4292.29777560962
31
0
0
LINE
8
Základní_vrstva
62
161
10
2936.93828133076
20
4292.29777560962
30
0
11
2937.07204383076
21
4292.10202560962
31
0
0
LINE
8
Základní_vrstva
62
161
10
2937.07204383076
20
4292.10202560962
30
0
11
2937.26453133076
21
4291.95847560962
31
0
0
LINE
8
Základní_vrstva
62
161
10
2937.26453133076
20
4291.95847560962
30
0
11
2937.64298133076
21
4291.69747560962
31
0
0
LINE
8
Základní_vrstva
62
161
10
2937.64298133076
20
4291.69747560962
30
0
11
2937.89093133076
21
4291.34512560962
31
0
0
LINE
8
Základní_vrstva
62
161
10
2937.89093133076
20
4291.34512560962
30
0
11
2938.00838133076
21
4291.16568810962
31
0
0
LINE
8
Základní_vrstva
62
161
10
2938.00838133076
20
4291.16568810962
30
0
11
2938.17803133076
21
4291.04497560962
31
0
0
LINE
8
Základní_vrstva
62
161
10
2938.17803133076
20
4291.04497560962
30
0
11
2938.38683133076
21
4290.98951310962
31
0
0
LINE
8
Základní_vrstva
62
161
10
2938.38683133076
20
4290.98951310962
30
0
11
2938.62173133076
21
4291.00582560962
31
0
0
LINE
8
Základní_vrstva
62
161
10
2938.62173133076
20
4291.00582560962
30
0
11
2939.07848133076
21
4291.04497560962
31
0
0
LINE
8
Základní_vrstva
62
161
10
2939.07848133076
20
4291.04497560962
30
0
11
2939.49608133076
21
4290.92752560962
31
0
0
LINE
8
Základní_vrstva
62
161
10
2939.49608133076
20
4290.92752560962
30
0
11
2939.71466883076
21
4290.86553810962
31
0
0
LINE
8
Základní_vrstva
62
161
10
2939.71466883076
20
4290.86553810962
30
0
11
2939.95283133076
21
4290.88837560962
31
0
0
LINE
8
Základní_vrstva
62
161
10
2939.95283133076
20
4290.88837560962
30
0
11
2940.16815633076
21
4290.98298810962
31
0
0
LINE
8
Základní_vrstva
62
161
10
2940.16815633076
20
4290.98298810962
30
0
11
2940.31823133076
21
4291.13632560962
31
0
0
LINE
8
Základní_vrstva
62
161
10
2940.31823133076
20
4291.13632560962
30
0
11
2940.61838133076
21
4291.44952560962
31
0
0
LINE
8
Základní_vrstva
62
161
10
2940.61838133076
20
4291.44952560962
30
0
11
2941.02293133076
21
4291.63222560962
31
0
0
LINE
8
Základní_vrstva
62
161
10
2941.02293133076
20
4291.63222560962
30
0
11
2941.22846883076
21
4291.72683810962
31
0
0
LINE
8
Základní_vrstva
62
161
10
2941.22846883076
20
4291.72683810962
30
0
11
2941.40138133076
21
4291.90627560962
31
0
0
LINE
8
Základní_vrstva
62
161
10
2941.40138133076
20
4291.90627560962
30
0
11
2941.51230633076
21
4292.12812560962
31
0
0
LINE
8
Základní_vrstva
62
161
10
2941.51230633076
20
4292.12812560962
30
0
11
2941.53188133076
21
4292.34997560962
31
0
0
LINE
8
Základní_vrstva
62
161
10
2941.53188133076
20
4292.34997560962
30
0
11
2941.55798133076
21
4292.79367560962
31
0
0
LINE
8
Základní_vrstva
62
161
10
2941.55798133076
20
4292.79367560962
30
0
11
2941.74068133076
21
4293.21127560962
31
0
0
LINE
8
Základní_vrstva
62
161
10
2941.74068133076
20
4293.21127560962
30
0
11
2941.83529383076
21
4293.40376310962
31
0
0
LINE
8
Základní_vrstva
62
161
10
2941.83529383076
20
4293.40376310962
30
0
11
2941.85813133076
21
4293.58972560962
31
0
0
CIRCLE
8
Základní_vrstva
62
161
10
2939.28728133076
20
4293.38092560962
30
0
40
0.2175000000002
0
LINE
8
Základní_vrstva
62
161
10
2939.06695633076
20
4292.39910060962
30
0
11
2939.02780633076
21
4292.58180060962
31
0
0
LINE
8
Základní_vrstva
62
161
10
2939.02780633076
20
4292.58180060962
30
0
11
2938.91035633076
21
4292.76450060962
31
0
0
LINE
8
Základní_vrstva
62
161
10
2938.91035633076
20
4292.76450060962
30
0
11
2938.64935633076
21
4293.16905060962
31
0
0
LINE
8
Základní_vrstva
62
161
10
2938.64935633076
20
4293.16905060962
30
0
11
2938.53190633076
21
4293.61275060962
31
0
0
LINE
8
Základní_vrstva
62
161
10
2938.53190633076
20
4293.61275060962
30
0
11
2938.47970633076
21
4293.82155060962
31
0
0
LINE
8
Základní_vrstva
62
161
10
2938.47970633076
20
4293.82155060962
30
0
11
2938.34920633076
21
4294.00425060962
31
0
0
LINE
8
Základní_vrstva
62
161
10
2938.34920633076
20
4294.00425060962
30
0
11
2938.15998133076
21
4294.14127560962
31
0
0
LINE
8
Základní_vrstva
62
161
10
2938.15998133076
20
4294.14127560962
30
0
11
2937.93160633076
21
4294.21305060962
31
0
0
LINE
8
Základní_vrstva
62
161
10
2937.93160633076
20
4294.21305060962
30
0
11
2937.50095633076
21
4294.33050060962
31
0
0
LINE
8
Základní_vrstva
62
161
10
2937.50095633076
20
4294.33050060962
30
0
11
2937.14860633076
21
4294.57845060962
31
0
0
LINE
8
Základní_vrstva
62
161
10
2937.14860633076
20
4294.57845060962
30
0
11
2936.96264383076
21
4294.70895060962
31
0
0
LINE
8
Základní_vrstva
62
161
10
2936.96264383076
20
4294.70895060962
30
0
11
2936.74405633076
21
4294.76115060962
31
0
0
LINE
8
Základní_vrstva
62
161
10
2936.74405633076
20
4294.76115060962
30
0
11
2936.51894383076
21
4294.73831310962
31
0
0
LINE
8
Základní_vrstva
62
161
10
2936.51894383076
20
4294.73831310962
30
0
11
2936.31340633076
21
4294.64370060962
31
0
0
LINE
8
Základní_vrstva
62
161
10
2936.31340633076
20
4294.64370060962
30
0
11
2935.93495633076
21
4294.46100060962
31
0
0
LINE
8
Základní_vrstva
62
161
10
2935.93495633076
20
4294.46100060962
30
0
11
2935.49125633076
21
4294.42185060962
31
0
0
LINE
8
Základní_vrstva
62
161
10
2935.49125633076
20
4294.42185060962
30
0
11
2935.24983133076
21
4294.40227560962
31
0
0
LINE
8
Základní_vrstva
62
161
10
2935.24983133076
20
4294.40227560962
30
0
11
2935.04755633076
21
4294.31745060962
31
0
0
LINE
8
Základní_vrstva
62
161
10
2935.04755633076
20
4294.31745060962
30
0
11
2934.88769383076
21
4294.16411310962
31
0
0
LINE
8
Základní_vrstva
62
161
10
2934.88769383076
20
4294.16411310962
30
0
11
2934.77350633076
21
4293.93900060962
31
0
0
LINE
8
Základní_vrstva
62
161
10
2934.77350633076
20
4293.93900060962
30
0
11
2934.57775633076
21
4293.53445060962
31
0
0
LINE
8
Základní_vrstva
62
161
10
2934.57775633076
20
4293.53445060962
30
0
11
2934.27760633076
21
4293.23430060962
31
0
0
LINE
8
Základní_vrstva
62
161
10
2934.27760633076
20
4293.23430060962
30
0
11
2934.11448133076
21
4293.05486310962
31
0
0
LINE
8
Základní_vrstva
62
161
10
2934.11448133076
20
4293.05486310962
30
0
11
2934.01660633076
21
4292.82975060962
31
0
0
LINE
8
Základní_vrstva
62
161
10
2934.01660633076
20
4292.82975060962
30
0
11
2933.99376883076
21
4292.59485060962
31
0
0
LINE
8
Základní_vrstva
62
161
10
2933.99376883076
20
4292.59485060962
30
0
11
2934.05575633076
21
4292.38605060962
31
0
0
LINE
8
Základní_vrstva
62
161
10
2934.05575633076
20
4292.38605060962
30
0
11
2934.17320633076
21
4291.98150060962
31
0
0
LINE
8
Základní_vrstva
62
161
10
2934.17320633076
20
4291.98150060962
30
0
11
2934.12100633076
21
4291.55085060962
31
0
0
LINE
8
Základní_vrstva
62
161
10
2934.12100633076
20
4291.55085060962
30
0
11
2934.09816883076
21
4291.32900060962
31
0
0
LINE
8
Základní_vrstva
62
161
10
2934.09816883076
20
4291.32900060962
30
0
11
2934.16015633076
21
4291.10715060962
31
0
0
LINE
8
Základní_vrstva
62
161
10
2934.16015633076
20
4291.10715060962
30
0
11
2934.29391883076
21
4290.91140060962
31
0
0
LINE
8
Základní_vrstva
62
161
10
2934.29391883076
20
4290.91140060962
30
0
11
2934.48640633076
21
4290.76785060962
31
0
0
LINE
8
Základní_vrstva
62
161
10
2934.48640633076
20
4290.76785060962
30
0
11
2934.86485633076
21
4290.50685060962
31
0
0
LINE
8
Základní_vrstva
62
161
10
2934.86485633076
20
4290.50685060962
30
0
11
2935.11280633076
21
4290.15450060962
31
0
0
LINE
8
Základní_vrstva
62
161
10
2935.11280633076
20
4290.15450060962
30
0
11
2935.23025633076
21
4289.97506310962
31
0
0
LINE
8
Základní_vrstva
62
161
10
2935.23025633076
20
4289.97506310962
30
0
11
2935.39990633076
21
4289.85435060962
31
0
0
LINE
8
Základní_vrstva
62
161
10
2935.39990633076
20
4289.85435060962
30
0
11
2935.60870633076
21
4289.79888810962
31
0
0
LINE
8
Základní_vrstva
62
161
10
2935.60870633076
20
4289.79888810962
30
0
11
2935.84360633076
21
4289.81520060962
31
0
0
LINE
8
Základní_vrstva
62
161
10
2935.84360633076
20
4289.81520060962
30
0
11
2936.30035633076
21
4289.85435060962
31
0
0
LINE
8
Základní_vrstva
62
161
10
2936.30035633076
20
4289.85435060962
30
0
11
2936.71795633076
21
4289.73690060962
31
0
0
LINE
8
Základní_vrstva
62
161
10
2936.71795633076
20
4289.73690060962
30
0
11
2936.93654383076
21
4289.67491310962
31
0
0
LINE
8
Základní_vrstva
62
161
10
2936.93654383076
20
4289.67491310962
30
0
11
2937.17470633076
21
4289.69775060962
31
0
0
LINE
8
Základní_vrstva
62
161
10
2937.17470633076
20
4289.69775060962
30
0
11
2937.39003133076
21
4289.79236310962
31
0
0
LINE
8
Základní_vrstva
62
161
10
2937.39003133076
20
4289.79236310962
30
0
11
2937.54010633076
21
4289.94570060962
31
0
0
LINE
8
Základní_vrstva
62
161
10
2937.54010633076
20
4289.94570060962
30
0
11
2937.84025633076
21
4290.25890060962
31
0
0
LINE
8
Základní_vrstva
62
161
10
2937.84025633076
20
4290.25890060962
30
0
11
2938.24480633076
21
4290.44160060962
31
0
0
LINE
8
Základní_vrstva
62
161
10
2938.24480633076
20
4290.44160060962
30
0
11
2938.45034383076
21
4290.53621310962
31
0
0
LINE
8
Základní_vrstva
62
161
10
2938.45034383076
20
4290.53621310962
30
0
11
2938.62325633076
21
4290.71565060962
31
0
0
LINE
8
Základní_vrstva
62
161
10
2938.62325633076
20
4290.71565060962
30
0
11
2938.73418133076
21
4290.93750060962
31
0
0
LINE
8
Základní_vrstva
62
161
10
2938.73418133076
20
4290.93750060962
30
0
11
2938.75375633076
21
4291.15935060962
31
0
0
LINE
8
Základní_vrstva
62
161
10
2938.75375633076
20
4291.15935060962
30
0
11
2938.77985633076
21
4291.60305060962
31
0
0
LINE
8
Základní_vrstva
62
161
10
2938.77985633076
20
4291.60305060962
30
0
11
2938.96255633076
21
4292.02065060962
31
0
0
LINE
8
Základní_vrstva
62
161
10
2938.96255633076
20
4292.02065060962
30
0
11
2939.05716883076
21
4292.21313810962
31
0
0
LINE
8
Základní_vrstva
62
161
10
2939.05716883076
20
4292.21313810962
30
0
11
2939.08000633076
21
4292.39910060962
31
0
0
CIRCLE
8
Základní_vrstva
62
161
10
2936.50915633076
20
4292.19030060962
30
0
40
0.2175000000002
0
LINE
8
Základní_vrstva
62
161
10
2941.66853133076
20
4277.40670685962
30
0
11
2939.38650008076
21
4286.73326935962
31
0
0
TEXT
8
Základní_vrstva
62
161
10
2940.08103133076
20
4277.20826935962
30
0
40
3
50
0
11
2940.08103133076
21
4277.20826935962
31
0
1
1
72
0
73
3
0
LINE
8
Základní_vrstva
62
203
10
2936.08551883076
20
4317.93031935962
30
0
11
2936.04036883076
21
4318.14101935962
31
0
0
LINE
8
Základní_vrstva
62
203
10
2936.04036883076
20
4318.14101935962
30
0
11
2935.90491883076
21
4318.35171935962
31
0
0
LINE
8
Základní_vrstva
62
203
10
2935.90491883076
20
4318.35171935962
30
0
11
2935.60391883076
21
4318.81826935962
31
0
0
LINE
8
Základní_vrstva
62
203
10
2935.60391883076
20
4318.81826935962
30
0
11
2935.50985633076
21
4319.07411935962
31
0
0
LINE
8
Základní_vrstva
62
203
10
2935.50985633076
20
4319.07411935962
30
0
11
2935.46846883076
21
4319.32996935962
31
0
0
LINE
8
Základní_vrstva
62
203
10
2935.46846883076
20
4319.32996935962
30
0
11
2935.40826883076
21
4319.57076935962
31
0
0
LINE
8
Základní_vrstva
62
203
10
2935.40826883076
20
4319.57076935962
30
0
11
2935.25776883076
21
4319.78146935962
31
0
0
LINE
8
Základní_vrstva
62
203
10
2935.25776883076
20
4319.78146935962
30
0
11
2935.03954383076
21
4319.93949435962
31
0
0
LINE
8
Základní_vrstva
62
203
10
2935.03954383076
20
4319.93949435962
30
0
11
2934.77616883076
21
4320.02226935962
31
0
0
LINE
8
Základní_vrstva
62
203
10
2934.77616883076
20
4320.02226935962
30
0
11
2934.27951883076
21
4320.15771935962
31
0
0
LINE
8
Základní_vrstva
62
203
10
2934.27951883076
20
4320.15771935962
30
0
11
2933.87316883076
21
4320.44366935962
31
0
0
LINE
8
Základní_vrstva
62
203
10
2933.87316883076
20
4320.44366935962
30
0
11
2933.65870633076
21
4320.59416935962
31
0
0
LINE
8
Základní_vrstva
62
203
10
2933.65870633076
20
4320.59416935962
30
0
11
2933.40661883076
21
4320.65436935962
31
0
0
LINE
8
Základní_vrstva
62
203
10
2933.40661883076
20
4320.65436935962
30
0
11
2933.14700633076
21
4320.62803185962
31
0
0
LINE
8
Základní_vrstva
62
203
10
2933.14700633076
20
4320.62803185962
30
0
11
2932.90996883076
21
4320.51891935962
31
0
0
LINE
8
Základní_vrstva
62
203
10
2932.90996883076
20
4320.51891935962
30
0
11
2932.47351883076
21
4320.30821935962
31
0
0
LINE
8
Základní_vrstva
62
203
10
2932.47351883076
20
4320.30821935962
30
0
11
2931.96181883076
21
4320.26306935962
31
0
0
LINE
8
Základní_vrstva
62
203
10
2931.96181883076
20
4320.26306935962
30
0
11
2931.68339383076
21
4320.24049435962
31
0
0
LINE
8
Základní_vrstva
62
203
10
2931.68339383076
20
4320.24049435962
30
0
11
2931.45011883076
21
4320.14266935962
31
0
0
LINE
8
Základní_vrstva
62
203
10
2931.45011883076
20
4320.14266935962
30
0
11
2931.26575633076
21
4319.96583185962
31
0
0
LINE
8
Základní_vrstva
62
203
10
2931.26575633076
20
4319.96583185962
30
0
11
2931.13406883076
21
4319.70621935962
31
0
0
LINE
8
Základní_vrstva
62
203
10
2931.13406883076
20
4319.70621935962
30
0
11
2930.90831883076
21
4319.23966935962
31
0
0
LINE
8
Základní_vrstva
62
203
10
2930.90831883076
20
4319.23966935962
30
0
11
2930.56216883076
21
4318.89351935962
31
0
0
LINE
8
Základní_vrstva
62
203
10
2930.56216883076
20
4318.89351935962
30
0
11
2930.37404383076
21
4318.68658185962
31
0
0
LINE
8
Základní_vrstva
62
203
10
2930.37404383076
20
4318.68658185962
30
0
11
2930.26116883076
21
4318.42696935962
31
0
0
LINE
8
Základní_vrstva
62
203
10
2930.26116883076
20
4318.42696935962
30
0
11
2930.23483133076
21
4318.15606935962
31
0
0
LINE
8
Základní_vrstva
62
203
10
2930.23483133076
20
4318.15606935962
30
0
11
2930.30631883076
21
4317.91526935962
31
0
0
LINE
8
Základní_vrstva
62
203
10
2930.30631883076
20
4317.91526935962
30
0
11
2930.40038133076
21
4317.68575685962
31
0
0
LINE
8
Základní_vrstva
62
203
10
2930.40038133076
20
4317.68575685962
30
0
11
2930.44176883076
21
4317.44871935962
31
0
0
LINE
8
Základní_vrstva
62
203
10
2930.44176883076
20
4317.44871935962
30
0
11
2930.38156883076
21
4316.95206935962
31
0
0
LINE
8
Základní_vrstva
62
203
10
2930.38156883076
20
4316.95206935962
30
0
11
2930.35523133076
21
4316.69621935962
31
0
0
LINE
8
Základní_vrstva
62
203
10
2930.35523133076
20
4316.69621935962
30
0
11
2930.42671883076
21
4316.44036935962
31
0
0
LINE
8
Základní_vrstva
62
203
10
2930.42671883076
20
4316.44036935962
30
0
11
2930.58098133076
21
4316.21461935962
31
0
0
LINE
8
Základní_vrstva
62
203
10
2930.58098133076
20
4316.21461935962
30
0
11
2930.80296883076
21
4316.04906935962
31
0
0
LINE
8
Základní_vrstva
62
203
10
2930.80296883076
20
4316.04906935962
30
0
11
2931.23941883076
21
4315.74806935962
31
0
0
LINE
8
Základní_vrstva
62
203
10
2931.23941883076
20
4315.74806935962
30
0
11
2931.40120633076
21
4315.56370685962
31
0
0
LINE
8
Základní_vrstva
62
203
10
2931.40120633076
20
4315.56370685962
30
0
11
2931.52536883076
21
4315.34171935962
31
0
0
LINE
8
Základní_vrstva
62
203
10
2931.52536883076
20
4315.34171935962
30
0
11
2931.66081883076
21
4315.13478185962
31
0
0
LINE
8
Základní_vrstva
62
203
10
2931.66081883076
20
4315.13478185962
30
0
11
2931.85646883076
21
4314.99556935962
31
0
0
LINE
8
Základní_vrstva
62
203
10
2931.85646883076
20
4314.99556935962
30
0
11
2932.09726883076
21
4314.93160685962
31
0
0
LINE
8
Základní_vrstva
62
203
10
2932.09726883076
20
4314.93160685962
30
0
11
2932.36816883076
21
4314.95041935962
31
0
0
LINE
8
Základní_vrstva
62
203
10
2932.36816883076
20
4314.95041935962
30
0
11
2932.89491883076
21
4314.99556935962
31
0
0
LINE
8
Základní_vrstva
62
203
10
2932.89491883076
20
4314.99556935962
30
0
11
2933.13571883076
21
4314.95418185962
31
0
0
LINE
8
Základní_vrstva
62
203
10
2933.13571883076
20
4314.95418185962
30
0
11
2933.37651883076
21
4314.86011935962
31
0
0
LINE
8
Základní_vrstva
62
203
10
2933.37651883076
20
4314.86011935962
30
0
11
2933.62860633076
21
4314.78863185962
31
0
0
LINE
8
Základní_vrstva
62
203
10
2933.62860633076
20
4314.78863185962
30
0
11
2933.90326883076
21
4314.81496935962
31
0
0
LINE
8
Základní_vrstva
62
203
10
2933.90326883076
20
4314.81496935962
30
0
11
2934.15159383076
21
4314.92408185962
31
0
0
LINE
8
Základní_vrstva
62
203
10
2934.15159383076
20
4314.92408185962
30
0
11
2934.32466883076
21
4315.10091935962
31
0
0
LINE
8
Základní_vrstva
62
203
10
2934.32466883076
20
4315.10091935962
30
0
11
2934.67081883076
21
4315.46211935962
31
0
0
LINE
8
Základní_vrstva
62
203
10
2934.67081883076
20
4315.46211935962
30
0
11
2934.89280633076
21
4315.59004435962
31
0
0
LINE
8
Základní_vrstva
62
203
10
2934.89280633076
20
4315.59004435962
30
0
11
2935.13736883076
21
4315.67281935962
31
0
0
LINE
8
Základní_vrstva
62
203
10
2935.13736883076
20
4315.67281935962
30
0
11
2935.37440633076
21
4315.78193185962
31
0
0
LINE
8
Základní_vrstva
62
203
10
2935.37440633076
20
4315.78193185962
30
0
11
2935.57381883076
21
4315.98886935962
31
0
0
LINE
8
Základní_vrstva
62
203
10
2935.57381883076
20
4315.98886935962
30
0
11
2935.70174383076
21
4316.24471935962
31
0
0
LINE
8
Základní_vrstva
62
203
10
2935.70174383076
20
4316.24471935962
30
0
11
2935.72431883076
21
4316.50056935962
31
0
0
LINE
8
Základní_vrstva
62
203
10
2935.72431883076
20
4316.50056935962
30
0
11
2935.75441883076
21
4317.01226935962
31
0
0
LINE
8
Základní_vrstva
62
203
10
2935.75441883076
20
4317.01226935962
30
0
11
2935.96511883076
21
4317.49386935962
31
0
0
LINE
8
Základní_vrstva
62
203
10
2935.96511883076
20
4317.49386935962
30
0
11
2936.07423133076
21
4317.71585685962
31
0
0
LINE
8
Základní_vrstva
62
203
10
2936.07423133076
20
4317.71585685962
30
0
11
2936.10056883076
21
4317.93031935962
31
0
0
CIRCLE
8
Základní_vrstva
62
203
10
2933.13571883076
20
4317.68951935962
30
0
40
0.250833333333503
0
LINE
8
Základní_vrstva
62
203
10
2940.55036258076
20
4316.83891310962
30
0
11
2940.50521258076
21
4317.04961310962
31
0
0
LINE
8
Základní_vrstva
62
203
10
2940.50521258076
20
4317.04961310962
30
0
11
2940.36976258076
21
4317.26031310962
31
0
0
LINE
8
Základní_vrstva
62
203
10
2940.36976258076
20
4317.26031310962
30
0
11
2940.06876258076
21
4317.72686310962
31
0
0
LINE
8
Základní_vrstva
62
203
10
2940.06876258076
20
4317.72686310962
30
0
11
2939.97470008076
21
4317.98271310962
31
0
0
LINE
8
Základní_vrstva
62
203
10
2939.97470008076
20
4317.98271310962
30
0
11
2939.93331258076
21
4318.23856310962
31
0
0
LINE
8
Základní_vrstva
62
203
10
2939.93331258076
20
4318.23856310962
30
0
11
2939.87311258076
21
4318.47936310962
31
0
0
LINE
8
Základní_vrstva
62
203
10
2939.87311258076
20
4318.47936310962
30
0
11
2939.72261258076
21
4318.69006310962
31
0
0
LINE
8
Základní_vrstva
62
203
10
2939.72261258076
20
4318.69006310962
30
0
11
2939.50438758076
21
4318.84808810962
31
0
0
LINE
8
Základní_vrstva
62
203
10
2939.50438758076
20
4318.84808810962
30
0
11
2939.24101258076
21
4318.93086310962
31
0
0
LINE
8
Základní_vrstva
62
203
10
2939.24101258076
20
4318.93086310962
30
0
11
2938.74436258076
21
4319.06631310962
31
0
0
LINE
8
Základní_vrstva
62
203
10
2938.74436258076
20
4319.06631310962
30
0
11
2938.33801258076
21
4319.35226310962
31
0
0
LINE
8
Základní_vrstva
62
203
10
2938.33801258076
20
4319.35226310962
30
0
11
2938.12355008076
21
4319.50276310962
31
0
0
LINE
8
Základní_vrstva
62
203
10
2938.12355008076
20
4319.50276310962
30
0
11
2937.87146258076
21
4319.56296310962
31
0
0
LINE
8
Základní_vrstva
62
203
10
2937.87146258076
20
4319.56296310962
30
0
11
2937.61185008076
21
4319.53662560962
31
0
0
LINE
8
Základní_vrstva
62
203
10
2937.61185008076
20
4319.53662560962
30
0
11
2937.37481258076
21
4319.42751310962
31
0
0
LINE
8
Základní_vrstva
62
203
10
2937.37481258076
20
4319.42751310962
30
0
11
2936.93836258076
21
4319.21681310962
31
0
0
LINE
8
Základní_vrstva
62
203
10
2936.93836258076
20
4319.21681310962
30
0
11
2936.42666258076
21
4319.17166310962
31
0
0
LINE
8
Základní_vrstva
62
203
10
2936.42666258076
20
4319.17166310962
30
0
11
2936.14823758076
21
4319.14908810962
31
0
0
LINE
8
Základní_vrstva
62
203
10
2936.14823758076
20
4319.14908810962
30
0
11
2935.91496258076
21
4319.05126310962
31
0
0
LINE
8
Základní_vrstva
62
203
10
2935.91496258076
20
4319.05126310962
30
0
11
2935.73060008076
21
4318.87442560962
31
0
0
LINE
8
Základní_vrstva
62
203
10
2935.73060008076
20
4318.87442560962
30
0
11
2935.59891258076
21
4318.61481310962
31
0
0
LINE
8
Základní_vrstva
62
203
10
2935.59891258076
20
4318.61481310962
30
0
11
2935.37316258076
21
4318.14826310962
31
0
0
LINE
8
Základní_vrstva
62
203
10
2935.37316258076
20
4318.14826310962
30
0
11
2935.02701258076
21
4317.80211310962
31
0
0
LINE
8
Základní_vrstva
62
203
10
2935.02701258076
20
4317.80211310962
30
0
11
2934.83888758076
21
4317.59517560962
31
0
0
LINE
8
Základní_vrstva
62
203
10
2934.83888758076
20
4317.59517560962
30
0
11
2934.72601258076
21
4317.33556310962
31
0
0
LINE
8
Základní_vrstva
62
203
10
2934.72601258076
20
4317.33556310962
30
0
11
2934.69967508076
21
4317.06466310962
31
0
0
LINE
8
Základní_vrstva
62
203
10
2934.69967508076
20
4317.06466310962
30
0
11
2934.77116258076
21
4316.82386310962
31
0
0
LINE
8
Základní_vrstva
62
203
10
2934.77116258076
20
4316.82386310962
30
0
11
2934.86522508076
21
4316.59435060962
31
0
0
LINE
8
Základní_vrstva
62
203
10
2934.86522508076
20
4316.59435060962
30
0
11
2934.90661258076
21
4316.35731310962
31
0
0
LINE
8
Základní_vrstva
62
203
10
2934.90661258076
20
4316.35731310962
30
0
11
2934.84641258076
21
4315.86066310962
31
0
0
LINE
8
Základní_vrstva
62
203
10
2934.84641258076
20
4315.86066310962
30
0
11
2934.82007508076
21
4315.60481310962
31
0
0
LINE
8
Základní_vrstva
62
203
10
2934.82007508076
20
4315.60481310962
30
0
11
2934.89156258076
21
4315.34896310962
31
0
0
LINE
8
Základní_vrstva
62
203
10
2934.89156258076
20
4315.34896310962
30
0
11
2935.04582508076
21
4315.12321310962
31
0
0
LINE
8
Základní_vrstva
62
203
10
2935.04582508076
20
4315.12321310962
30
0
11
2935.26781258076
21
4314.95766310962
31
0
0
LINE
8
Základní_vrstva
62
203
10
2935.26781258076
20
4314.95766310962
30
0
11
2935.70426258076
21
4314.65666310962
31
0
0
LINE
8
Základní_vrstva
62
203
10
2935.70426258076
20
4314.65666310962
30
0
11
2935.86605008076
21
4314.47230060962
31
0
0
LINE
8
Základní_vrstva
62
203
10
2935.86605008076
20
4314.47230060962
30
0
11
2935.99021258076
21
4314.25031310962
31
0
0
LINE
8
Základní_vrstva
62
203
10
2935.99021258076
20
4314.25031310962
30
0
11
2936.12566258076
21
4314.04337560962
31
0
0
LINE
8
Základní_vrstva
62
203
10
2936.12566258076
20
4314.04337560962
30
0
11
2936.32131258076
21
4313.90416310962
31
0
0
LINE
8
Základní_vrstva
62
203
10
2936.32131258076
20
4313.90416310962
30
0
11
2936.56211258076
21
4313.84020060962
31
0
0
LINE
8
Základní_vrstva
62
203
10
2936.56211258076
20
4313.84020060962
30
0
11
2936.83301258076
21
4313.85901310962
31
0
0
LINE
8
Základní_vrstva
62
203
10
2936.83301258076
20
4313.85901310962
30
0
11
2937.35976258076
21
4313.90416310962
31
0
0
LINE
8
Základní_vrstva
62
203
10
2937.35976258076
20
4313.90416310962
30
0
11
2937.60056258076
21
4313.86277560962
31
0
0
LINE
8
Základní_vrstva
62
203
10
2937.60056258076
20
4313.86277560962
30
0
11
2937.84136258076
21
4313.76871310962
31
0
0
LINE
8
Základní_vrstva
62
203
10
2937.84136258076
20
4313.76871310962
30
0
11
2938.09345008076
21
4313.69722560962
31
0
0
LINE
8
Základní_vrstva
62
203
10
2938.09345008076
20
4313.69722560962
30
0
11
2938.36811258076
21
4313.72356310962
31
0
0
LINE
8
Základní_vrstva
62
203
10
2938.36811258076
20
4313.72356310962
30
0
11
2938.61643758076
21
4313.83267560962
31
0
0
LINE
8
Základní_vrstva
62
203
10
2938.61643758076
20
4313.83267560962
30
0
11
2938.78951258076
21
4314.00951310962
31
0
0
LINE
8
Základní_vrstva
62
203
10
2938.78951258076
20
4314.00951310962
30
0
11
2939.13566258076
21
4314.37071310962
31
0
0
LINE
8
Základní_vrstva
62
203
10
2939.13566258076
20
4314.37071310962
30
0
11
2939.35765008076
21
4314.49863810962
31
0
0
LINE
8
Základní_vrstva
62
203
10
2939.35765008076
20
4314.49863810962
30
0
11
2939.60221258076
21
4314.58141310962
31
0
0
LINE
8
Základní_vrstva
62
203
10
2939.60221258076
20
4314.58141310962
30
0
11
2939.83925008076
21
4314.69052560962
31
0
0
LINE
8
Základní_vrstva
62
203
10
2939.83925008076
20
4314.69052560962
30
0
11
2940.03866258076
21
4314.89746310962
31
0
0
LINE
8
Základní_vrstva
62
203
10
2940.03866258076
20
4314.89746310962
30
0
11
2940.16658758076
21
4315.15331310962
31
0
0
LINE
8
Základní_vrstva
62
203
10
2940.16658758076
20
4315.15331310962
30
0
11
2940.18916258076
21
4315.40916310962
31
0
0
LINE
8
Základní_vrstva
62
203
10
2940.18916258076
20
4315.40916310962
30
0
11
2940.21926258076
21
4315.92086310962
31
0
0
LINE
8
Základní_vrstva
62
203
10
2940.21926258076
20
4315.92086310962
30
0
11
2940.42996258076
21
4316.40246310962
31
0
0
LINE
8
Základní_vrstva
62
203
10
2940.42996258076
20
4316.40246310962
30
0
11
2940.53907508076
21
4316.62445060962
31
0
0
LINE
8
Základní_vrstva
62
203
10
2940.53907508076
20
4316.62445060962
30
0
11
2940.56541258076
21
4316.83891310962
31
0
0
CIRCLE
8
Základní_vrstva
62
203
10
2937.60056258076
20
4316.59811310962
30
0
40
0.250833333333503
0
LINE
8
Základní_vrstva
62
203
10
2938.56598758076
20
4313.16781935962
30
0
11
2938.52083758076
21
4313.37851935962
31
0
0
LINE
8
Základní_vrstva
62
203
10
2938.52083758076
20
4313.37851935962
30
0
11
2938.38538758076
21
4313.58921935962
31
0
0
LINE
8
Základní_vrstva
62
203
10
2938.38538758076
20
4313.58921935962
30
0
11
2938.08438758076
21
4314.05576935962
31
0
0
LINE
8
Základní_vrstva
62
203
10
2938.08438758076
20
4314.05576935962
30
0
11
2937.99032508076
21
4314.31161935962
31
0
0
LINE
8
Základní_vrstva
62
203
10
2937.99032508076
20
4314.31161935962
30
0
11
2937.94893758076
21
4314.56746935962
31
0
0
LINE
8
Základní_vrstva
62
203
10
2937.94893758076
20
4314.56746935962
30
0
11
2937.88873758076
21
4314.80826935962
31
0
0
LINE
8
Základní_vrstva
62
203
10
2937.88873758076
20
4314.80826935962
30
0
11
2937.73823758076
21
4315.01896935962
31
0
0
LINE
8
Základní_vrstva
62
203
10
2937.73823758076
20
4315.01896935962
30
0
11
2937.52001258076
21
4315.17699435962
31
0
0
LINE
8
Základní_vrstva
62
203
10
2937.52001258076
20
4315.17699435962
30
0
11
2937.25663758076
21
4315.25976935962
31
0
0
LINE
8
Základní_vrstva
62
203
10
2937.25663758076
20
4315.25976935962
30
0
11
2936.75998758076
21
4315.39521935962
31
0
0
LINE
8
Základní_vrstva
62
203
10
2936.75998758076
20
4315.39521935962
30
0
11
2936.35363758076
21
4315.68116935962
31
0
0
LINE
8
Základní_vrstva
62
203
10
2936.35363758076
20
4315.68116935962
30
0
11
2936.13917508076
21
4315.83166935962
31
0
0
LINE
8
Základní_vrstva
62
203
10
2936.13917508076
20
4315.83166935962
30
0
11
2935.88708758076
21
4315.89186935962
31
0
0
LINE
8
Základní_vrstva
62
203
10
2935.88708758076
20
4315.89186935962
30
0
11
2935.62747508076
21
4315.86553185962
31
0
0
LINE
8
Základní_vrstva
62
203
10
2935.62747508076
20
4315.86553185962
30
0
11
2935.39043758076
21
4315.75641935962
31
0
0
LINE
8
Základní_vrstva
62
203
10
2935.39043758076
20
4315.75641935962
30
0
11
2934.95398758076
21
4315.54571935962
31
0
0
LINE
8
Základní_vrstva
62
203
10
2934.95398758076
20
4315.54571935962
30
0
11
2934.44228758076
21
4315.50056935962
31
0
0
LINE
8
Základní_vrstva
62
203
10
2934.44228758076
20
4315.50056935962
30
0
11
2934.16386258076
21
4315.47799435962
31
0
0
LINE
8
Základní_vrstva
62
203
10
2934.16386258076
20
4315.47799435962
30
0
11
2933.93058758076
21
4315.38016935962
31
0
0
LINE
8
Základní_vrstva
62
203
10
2933.93058758076
20
4315.38016935962
30
0
11
2933.74622508076
21
4315.20333185962
31
0
0
LINE
8
Základní_vrstva
62
203
10
2933.74622508076
20
4315.20333185962
30
0
11
2933.61453758076
21
4314.94371935962
31
0
0
LINE
8
Základní_vrstva
62
203
10
2933.61453758076
20
4314.94371935962
30
0
11
2933.38878758076
21
4314.47716935962
31
0
0
LINE
8
Základní_vrstva
62
203
10
2933.38878758076
20
4314.47716935962
30
0
11
2933.04263758076
21
4314.13101935962
31
0
0
LINE
8
Základní_vrstva
62
203
10
2933.04263758076
20
4314.13101935962
30
0
11
2932.85451258076
21
4313.92408185962
31
0
0
LINE
8
Základní_vrstva
62
203
10
2932.85451258076
20
4313.92408185962
30
0
11
2932.74163758076
21
4313.66446935962
31
0
0
LINE
8
Základní_vrstva
62
203
10
2932.74163758076
20
4313.66446935962
30
0
11
2932.71530008076
21
4313.39356935962
31
0
0
LINE
8
Základní_vrstva
62
203
10
2932.71530008076
20
4313.39356935962
30
0
11
2932.78678758076
21
4313.15276935962
31
0
0
LINE
8
Základní_vrstva
62
203
10
2932.78678758076
20
4313.15276935962
30
0
11
2932.88085008076
21
4312.92325685962
31
0
0
LINE
8
Základní_vrstva
62
203
10
2932.88085008076
20
4312.92325685962
30
0
11
2932.92223758076
21
4312.68621935962
31
0
0
LINE
8
Základní_vrstva
62
203
10
2932.92223758076
20
4312.68621935962
30
0
11
2932.86203758076
21
4312.18956935962
31
0
0
LINE
8
Základní_vrstva
62
203
10
2932.86203758076
20
4312.18956935962
30
0
11
2932.83570008076
21
4311.93371935962
31
0
0
LINE
8
Základní_vrstva
62
203
10
2932.83570008076
20
4311.93371935962
30
0
11
2932.90718758076
21
4311.67786935962
31
0
0
LINE
8
Základní_vrstva
62
203
10
2932.90718758076
20
4311.67786935962
30
0
11
2933.06145008076
21
4311.45211935962
31
0
0
LINE
8
Základní_vrstva
62
203
10
2933.06145008076
20
4311.45211935962
30
0
11
2933.28343758076
21
4311.28656935962
31
0
0
LINE
8
Základní_vrstva
62
203
10
2933.28343758076
20
4311.28656935962
30
0
11
2933.71988758076
21
4310.98556935962
31
0
0
LINE
8
Základní_vrstva
62
203
10
2933.71988758076
20
4310.98556935962
30
0
11
2933.88167508076
21
4310.80120685962
31
0
0
LINE
8
Základní_vrstva
62
203
10
2933.88167508076
20
4310.80120685962
30
0
11
2934.00583758076
21
4310.57921935962
31
0
0
LINE
8
Základní_vrstva
62
203
10
2934.00583758076
20
4310.57921935962
30
0
11
2934.14128758076
21
4310.37228185962
31
0
0
LINE
8
Základní_vrstva
62
203
10
2934.14128758076
20
4310.37228185962
30
0
11
2934.33693758076
21
4310.23306935962
31
0
0
LINE
8
Základní_vrstva
62
203
10
2934.33693758076
20
4310.23306935962
30
0
11
2934.57773758076
21
4310.16910685962
31
0
0
LINE
8
Základní_vrstva
62
203
10
2934.57773758076
20
4310.16910685962
30
0
11
2934.84863758076
21
4310.18791935962
31
0
0
LINE
8
Základní_vrstva
62
203
10
2934.84863758076
20
4310.18791935962
30
0
11
2935.37538758076
21
4310.23306935962
31
0
0
LINE
8
Základní_vrstva
62
203
10
2935.37538758076
20
4310.23306935962
30
0
11
2935.61618758076
21
4310.19168185962
31
0
0
LINE
8
Základní_vrstva
62
203
10
2935.61618758076
20
4310.19168185962
30
0
11
2935.85698758076
21
4310.09761935962
31
0
0
LINE
8
Základní_vrstva
62
203
10
2935.85698758076
20
4310.09761935962
30
0
11
2936.10907508076
21
4310.02613185962
31
0
0
LINE
8
Základní_vrstva
62
203
10
2936.10907508076
20
4310.02613185962
30
0
11
2936.38373758076
21
4310.05246935962
31
0
0
LINE
8
Základní_vrstva
62
203
10
2936.38373758076
20
4310.05246935962
30
0
11
2936.63206258076
21
4310.16158185962
31
0
0
LINE
8
Základní_vrstva
62
203
10
2936.63206258076
20
4310.16158185962
30
0
11
2936.80513758076
21
4310.33841935962
31
0
0
LINE
8
Základní_vrstva
62
203
10
2936.80513758076
20
4310.33841935962
30
0
11
2937.15128758076
21
4310.69961935962
31
0
0
LINE
8
Základní_vrstva
62
203
10
2937.15128758076
20
4310.69961935962
30
0
11
2937.37327508076
21
4310.82754435962
31
0
0
LINE
8
Základní_vrstva
62
203
10
2937.37327508076
20
4310.82754435962
30
0
11
2937.61783758076
21
4310.91031935962
31
0
0
LINE
8
Základní_vrstva
62
203
10
2937.61783758076
20
4310.91031935962
30
0
11
2937.85487508076
21
4311.01943185962
31
0
0
LINE
8
Základní_vrstva
62
203
10
2937.85487508076
20
4311.01943185962
30
0
11
2938.05428758076
21
4311.22636935962
31
0
0
LINE
8
Základní_vrstva
62
203
10
2938.05428758076
20
4311.22636935962
30
0
11
2938.18221258076
21
4311.48221935962
31
0
0
LINE
8
Základní_vrstva
62
203
10
2938.18221258076
20
4311.48221935962
30
0
11
2938.20478758076
21
4311.73806935962
31
0
0
LINE
8
Základní_vrstva
62
203
10
2938.20478758076
20
4311.73806935962
30
0
11
2938.23488758076
21
4312.24976935962
31
0
0
LINE
8
Základní_vrstva
62
203
10
2938.23488758076
20
4312.24976935962
30
0
11
2938.44558758076
21
4312.73136935962
31
0
0
LINE
8
Základní_vrstva
62
203
10
2938.44558758076
20
4312.73136935962
30
0
11
2938.55470008076
21
4312.95335685962
31
0
0
LINE
8
Základní_vrstva
62
203
10
2938.55470008076
20
4312.95335685962
30
0
11
2938.58103758076
21
4313.16781935962
31
0
0
CIRCLE
8
Základní_vrstva
62
203
10
2935.61618758076
20
4312.92701935962
30
0
40
0.250833333333503
0
LINE
8
Základní_vrstva
62
203
10
2947.72868758076
20
4317.18561310962
30
0
11
2938.59275008076
21
4313.72076935962
31
0
0
TEXT
8
Základní_vrstva
62
203
10
2948.02634383076
20
4320.55905060962
30
0
40
3
50
0
11
2948.02634383076
21
4320.55905060962
31
0
1
2
72
0
73
3
0
LINE
8
Základní_vrstva
62
92
10
2935.05776258076
20
4294.95118810962
30
0
11
2935.02378758076
21
4295.10973810962
31
0
0
LINE
8
Základní_vrstva
62
92
10
2935.02378758076
20
4295.10973810962
30
0
11
2934.92186258076
21
4295.26828810962
31
0
0
LINE
8
Základní_vrstva
62
92
10
2934.92186258076
20
4295.26828810962
30
0
11
2934.69536258076
21
4295.61936310962
31
0
0
LINE
8
Základní_vrstva
62
92
10
2934.69536258076
20
4295.61936310962
30
0
11
2934.59343758076
21
4296.00441310962
31
0
0
LINE
8
Základní_vrstva
62
92
10
2934.59343758076
20
4296.00441310962
30
0
11
2934.54813758076
21
4296.18561310962
31
0
0
LINE
8
Základní_vrstva
62
92
10
2934.54813758076
20
4296.18561310962
30
0
11
2934.43488758076
21
4296.34416310962
31
0
0
LINE
8
Základní_vrstva
62
92
10
2934.43488758076
20
4296.34416310962
30
0
11
2934.27067508076
21
4296.46307560962
31
0
0
LINE
8
Základní_vrstva
62
92
10
2934.27067508076
20
4296.46307560962
30
0
11
2934.07248758076
21
4296.52536310962
31
0
0
LINE
8
Základní_vrstva
62
92
10
2934.07248758076
20
4296.52536310962
30
0
11
2933.69876258076
21
4296.62728810962
31
0
0
LINE
8
Základní_vrstva
62
92
10
2933.69876258076
20
4296.62728810962
30
0
11
2933.39298758076
21
4296.84246310962
31
0
0
LINE
8
Základní_vrstva
62
92
10
2933.39298758076
20
4296.84246310962
30
0
11
2933.23160633076
21
4296.95571310962
31
0
0
LINE
8
Základní_vrstva
62
92
10
2933.23160633076
20
4296.95571310962
30
0
11
2933.04191258076
21
4297.00101310962
31
0
0
LINE
8
Základní_vrstva
62
92
10
2933.04191258076
20
4297.00101310962
30
0
11
2932.84655633076
21
4296.98119435962
31
0
0
LINE
8
Základní_vrstva
62
92
10
2932.84655633076
20
4296.98119435962
30
0
11
2932.66818758076
21
4296.89908810962
31
0
0
LINE
8
Základní_vrstva
62
92
10
2932.66818758076
20
4296.89908810962
30
0
11
2932.33976258076
21
4296.74053810962
31
0
0
LINE
8
Základní_vrstva
62
92
10
2932.33976258076
20
4296.74053810962
30
0
11
2931.95471258076
21
4296.70656310962
31
0
0
LINE
8
Základní_vrstva
62
92
10
2931.95471258076
20
4296.70656310962
30
0
11
2931.74520008076
21
4296.68957560962
31
0
0
LINE
8
Základní_vrstva
62
92
10
2931.74520008076
20
4296.68957560962
30
0
11
2931.56966258076
21
4296.61596310962
31
0
0
LINE
8
Základní_vrstva
62
92
10
2931.56966258076
20
4296.61596310962
30
0
11
2931.43093133076
21
4296.48289435962
31
0
0
LINE
8
Základní_vrstva
62
92
10
2931.43093133076
20
4296.48289435962
30
0
11
2931.33183758076
21
4296.28753810962
31
0
0
LINE
8
Základní_vrstva
62
92
10
2931.33183758076
20
4296.28753810962
30
0
11
2931.16196258076
21
4295.93646310962
31
0
0
LINE
8
Základní_vrstva
62
92
10
2931.16196258076
20
4295.93646310962
30
0
11
2930.90148758076
21
4295.67598810962
31
0
0
LINE
8
Základní_vrstva
62
92
10
2930.90148758076
20
4295.67598810962
30
0
11
2930.75992508076
21
4295.52026935962
31
0
0
LINE
8
Základní_vrstva
62
92
10
2930.75992508076
20
4295.52026935962
30
0
11
2930.67498758076
21
4295.32491310962
31
0
0
LINE
8
Základní_vrstva
62
92
10
2930.67498758076
20
4295.32491310962
30
0
11
2930.65516883076
21
4295.12106310962
31
0
0
LINE
8
Základní_vrstva
62
92
10
2930.65516883076
20
4295.12106310962
30
0
11
2930.70896258076
21
4294.93986310962
31
0
0
LINE
8
Základní_vrstva
62
92
10
2930.70896258076
20
4294.93986310962
30
0
11
2930.81088758076
21
4294.58878810962
31
0
0
LINE
8
Základní_vrstva
62
92
10
2930.81088758076
20
4294.58878810962
30
0
11
2930.76558758076
21
4294.21506310962
31
0
0
LINE
8
Základní_vrstva
62
92
10
2930.76558758076
20
4294.21506310962
30
0
11
2930.74576883076
21
4294.02253810962
31
0
0
LINE
8
Základní_vrstva
62
92
10
2930.74576883076
20
4294.02253810962
30
0
11
2930.79956258076
21
4293.83001310962
31
0
0
LINE
8
Základní_vrstva
62
92
10
2930.79956258076
20
4293.83001310962
30
0
11
2930.91564383076
21
4293.66013810962
31
0
0
LINE
8
Základní_vrstva
62
92
10
2930.91564383076
20
4293.66013810962
30
0
11
2931.08268758076
21
4293.53556310962
31
0
0
LINE
8
Základní_vrstva
62
92
10
2931.08268758076
20
4293.53556310962
30
0
11
2931.41111258076
21
4293.30906310962
31
0
0
LINE
8
Základní_vrstva
62
92
10
2931.41111258076
20
4293.30906310962
30
0
11
2931.62628758076
21
4293.00328810962
31
0
0
LINE
8
Základní_vrstva
62
92
10
2931.62628758076
20
4293.00328810962
30
0
11
2931.72821258076
21
4292.84756935962
31
0
0
LINE
8
Základní_vrstva
62
92
10
2931.72821258076
20
4292.84756935962
30
0
11
2931.87543758076
21
4292.74281310962
31
0
0
LINE
8
Základní_vrstva
62
92
10
2931.87543758076
20
4292.74281310962
30
0
11
2932.05663758076
21
4292.69468185962
31
0
0
LINE
8
Základní_vrstva
62
92
10
2932.05663758076
20
4292.69468185962
30
0
11
2932.26048758076
21
4292.70883810962
31
0
0
LINE
8
Základní_vrstva
62
92
10
2932.26048758076
20
4292.70883810962
30
0
11
2932.65686258076
21
4292.74281310962
31
0
0
LINE
8
Základní_vrstva
62
92
10
2932.65686258076
20
4292.74281310962
30
0
11
2933.01926258076
21
4292.64088810962
31
0
0
LINE
8
Základní_vrstva
62
92
10
2933.01926258076
20
4292.64088810962
30
0
11
2933.20895633076
21
4292.58709435962
31
0
0
LINE
8
Základní_vrstva
62
92
10
2933.20895633076
20
4292.58709435962
30
0
11
2933.41563758076
21
4292.60691310962
31
0
0
LINE
8
Základní_vrstva
62
92
10
2933.41563758076
20
4292.60691310962
30
0
11
2933.60250008076
21
4292.68901935962
31
0
0
LINE
8
Základní_vrstva
62
92
10
2933.60250008076
20
4292.68901935962
30
0
11
2933.73273758076
21
4292.82208810962
31
0
0
LINE
8
Základní_vrstva
62
92
10
2933.73273758076
20
4292.82208810962
30
0
11
2933.99321258076
21
4293.09388810962
31
0
0
LINE
8
Základní_vrstva
62
92
10
2933.99321258076
20
4293.09388810962
30
0
11
2934.34428758076
21
4293.25243810962
31
0
0
LINE
8
Základní_vrstva
62
92
10
2934.34428758076
20
4293.25243810962
30
0
11
2934.52265633076
21
4293.33454435962
31
0
0
LINE
8
Základní_vrstva
62
92
10
2934.52265633076
20
4293.33454435962
30
0
11
2934.67271258076
21
4293.49026310962
31
0
0
LINE
8
Základní_vrstva
62
92
10
2934.67271258076
20
4293.49026310962
30
0
11
2934.76897508076
21
4293.68278810962
31
0
0
LINE
8
Základní_vrstva
62
92
10
2934.76897508076
20
4293.68278810962
30
0
11
2934.78596258076
21
4293.87531310962
31
0
0
LINE
8
Základní_vrstva
62
92
10
2934.78596258076
20
4293.87531310962
30
0
11
2934.80861258076
21
4294.26036310962
31
0
0
LINE
8
Základní_vrstva
62
92
10
2934.80861258076
20
4294.26036310962
30
0
11
2934.96716258076
21
4294.62276310962
31
0
0
LINE
8
Základní_vrstva
62
92
10
2934.96716258076
20
4294.62276310962
30
0
11
2935.04926883076
21
4294.78980685962
31
0
0
LINE
8
Základní_vrstva
62
92
10
2935.04926883076
20
4294.78980685962
30
0
11
2935.06908758076
21
4294.95118810962
31
0
0
CIRCLE
8
Základní_vrstva
62
92
10
2932.83806258076
20
4294.76998810962
30
0
40
0.1887499999998
0
LINE
8
Základní_vrstva
62
92
10
2931.88276258076
20
4297.72931310962
30
0
11
2931.84878758076
21
4297.88786310962
31
0
0
LINE
8
Základní_vrstva
62
92
10
2931.84878758076
20
4297.88786310962
30
0
11
2931.74686258076
21
4298.04641310962
31
0
0
LINE
8
Základní_vrstva
62
92
10
2931.74686258076
20
4298.04641310962
30
0
11
2931.52036258076
21
4298.39748810962
31
0
0
LINE
8
Základní_vrstva
62
92
10
2931.52036258076
20
4298.39748810962
30
0
11
2931.41843758076
21
4298.78253810962
31
0
0
LINE
8
Základní_vrstva
62
92
10
2931.41843758076
20
4298.78253810962
30
0
11
2931.37313758076
21
4298.96373810962
31
0
0
LINE
8
Základní_vrstva
62
92
10
2931.37313758076
20
4298.96373810962
30
0
11
2931.25988758076
21
4299.12228810962
31
0
0
LINE
8
Základní_vrstva
62
92
10
2931.25988758076
20
4299.12228810962
30
0
11
2931.09567508076
21
4299.24120060962
31
0
0
LINE
8
Základní_vrstva
62
92
10
2931.09567508076
20
4299.24120060962
30
0
11
2930.89748758076
21
4299.30348810962
31
0
0
LINE
8
Základní_vrstva
62
92
10
2930.89748758076
20
4299.30348810962
30
0
11
2930.52376258076
21
4299.40541310962
31
0
0
LINE
8
Základní_vrstva
62
92
10
2930.52376258076
20
4299.40541310962
30
0
11
2930.21798758076
21
4299.62058810962
31
0
0
LINE
8
Základní_vrstva
62
92
10
2930.21798758076
20
4299.62058810962
30
0
11
2930.05660633076
21
4299.73383810962
31
0
0
LINE
8
Základní_vrstva
62
92
10
2930.05660633076
20
4299.73383810962
30
0
11
2929.86691258076
21
4299.77913810962
31
0
0
LINE
8
Základní_vrstva
62
92
10
2929.86691258076
20
4299.77913810962
30
0
11
2929.67155633076
21
4299.75931935962
31
0
0
LINE
8
Základní_vrstva
62
92
10
2929.67155633076
20
4299.75931935962
30
0
11
2929.49318758076
21
4299.67721310962
31
0
0
LINE
8
Základní_vrstva
62
92
10
2929.49318758076
20
4299.67721310962
30
0
11
2929.16476258076
21
4299.51866310962
31
0
0
LINE
8
Základní_vrstva
62
92
10
2929.16476258076
20
4299.51866310962
30
0
11
2928.77971258076
21
4299.48468810962
31
0
0
LINE
8
Základní_vrstva
62
92
10
2928.77971258076
20
4299.48468810962
30
0
11
2928.57020008076
21
4299.46770060962
31
0
0
LINE
8
Základní_vrstva
62
92
10
2928.57020008076
20
4299.46770060962
30
0
11
2928.39466258076
21
4299.39408810962
31
0
0
LINE
8
Základní_vrstva
62
92
10
2928.39466258076
20
4299.39408810962
30
0
11
2928.25593133076
21
4299.26101935962
31
0
0
LINE
8
Základní_vrstva
62
92
10
2928.25593133076
20
4299.26101935962
30
0
11
2928.15683758076
21
4299.06566310962
31
0
0
LINE
8
Základní_vrstva
62
92
10
2928.15683758076
20
4299.06566310962
30
0
11
2927.98696258076
21
4298.71458810962
31
0
0
LINE
8
Základní_vrstva
62
92
10
2927.98696258076
20
4298.71458810962
30
0
11
2927.72648758076
21
4298.45411310962
31
0
0
LINE
8
Základní_vrstva
62
92
10
2927.72648758076
20
4298.45411310962
30
0
11
2927.58492508076
21
4298.29839435962
31
0
0
LINE
8
Základní_vrstva
62
92
10
2927.58492508076
20
4298.29839435962
30
0
11
2927.49998758076
21
4298.10303810962
31
0
0
LINE
8
Základní_vrstva
62
92
10
2927.49998758076
20
4298.10303810962
30
0
11
2927.48016883076
21
4297.89918810962
31
0
0
LINE
8
Základní_vrstva
62
92
10
2927.48016883076
20
4297.89918810962
30
0
11
2927.53396258076
21
4297.71798810962
31
0
0
LINE
8
Základní_vrstva
62
92
10
2927.53396258076
20
4297.71798810962
30
0
11
2927.63588758076
21
4297.36691310962
31
0
0
LINE
8
Základní_vrstva
62
92
10
2927.63588758076
20
4297.36691310962
30
0
11
2927.59058758076
21
4296.99318810962
31
0
0
LINE
8
Základní_vrstva
62
92
10
2927.59058758076
20
4296.99318810962
30
0
11
2927.57076883076
21
4296.80066310962
31
0
0
LINE
8
Základní_vrstva
62
92
10
2927.57076883076
20
4296.80066310962
30
0
11
2927.62456258076
21
4296.60813810962
31
0
0
LINE
8
Základní_vrstva
62
92
10
2927.62456258076
20
4296.60813810962
30
0
11
2927.74064383076
21
4296.43826310962
31
0
0
LINE
8
Základní_vrstva
62
92
10
2927.74064383076
20
4296.43826310962
30
0
11
2927.90768758076
21
4296.31368810962
31
0
0
LINE
8
Základní_vrstva
62
92
10
2927.90768758076
20
4296.31368810962
30
0
11
2928.23611258076
21
4296.08718810962
31
0
0
LINE
8
Základní_vrstva
62
92
10
2928.23611258076
20
4296.08718810962
30
0
11
2928.45128758076
21
4295.78141310962
31
0
0
LINE
8
Základní_vrstva
62
92
10
2928.45128758076
20
4295.78141310962
30
0
11
2928.55321258076
21
4295.62569435962
31
0
0
LINE
8
Základní_vrstva
62
92
10
2928.55321258076
20
4295.62569435962
30
0
11
2928.70043758076
21
4295.52093810962
31
0
0
LINE
8
Základní_vrstva
62
92
10
2928.70043758076
20
4295.52093810962
30
0
11
2928.88163758076
21
4295.47280685962
31
0
0
LINE
8
Základní_vrstva
62
92
10
2928.88163758076
20
4295.47280685962
30
0
11
2929.08548758076
21
4295.48696310962
31
0
0
LINE
8
Základní_vrstva
62
92
10
2929.08548758076
20
4295.48696310962
30
0
11
2929.48186258076
21
4295.52093810962
31
0
0
LINE
8
Základní_vrstva
62
92
10
2929.48186258076
20
4295.52093810962
30
0
11
2929.84426258076
21
4295.41901310962
31
0
0
LINE
8
Základní_vrstva
62
92
10
2929.84426258076
20
4295.41901310962
30
0
11
2930.03395633076
21
4295.36521935962
31
0
0
LINE
8
Základní_vrstva
62
92
10
2930.03395633076
20
4295.36521935962
30
0
11
2930.24063758076
21
4295.38503810962
31
0
0
LINE
8
Základní_vrstva
62
92
10
2930.24063758076
20
4295.38503810962
30
0
11
2930.42750008076
21
4295.46714435962
31
0
0
LINE
8
Základní_vrstva
62
92
10
2930.42750008076
20
4295.46714435962
30
0
11
2930.55773758076
21
4295.60021310962
31
0
0
LINE
8
Základní_vrstva
62
92
10
2930.55773758076
20
4295.60021310962
30
0
11
2930.81821258076
21
4295.87201310962
31
0
0
LINE
8
Základní_vrstva
62
92
10
2930.81821258076
20
4295.87201310962
30
0
11
2931.16928758076
21
4296.03056310962
31
0
0
LINE
8
Základní_vrstva
62
92
10
2931.16928758076
20
4296.03056310962
30
0
11
2931.34765633076
21
4296.11266935962
31
0
0
LINE
8
Základní_vrstva
62
92
10
2931.34765633076
20
4296.11266935962
30
0
11
2931.49771258076
21
4296.26838810962
31
0
0
LINE
8
Základní_vrstva
62
92
10
2931.49771258076
20
4296.26838810962
30
0
11
2931.59397508076
21
4296.46091310962
31
0
0
LINE
8
Základní_vrstva
62
92
10
2931.59397508076
20
4296.46091310962
30
0
11
2931.61096258076
21
4296.65343810962
31
0
0
LINE
8
Základní_vrstva
62
92
10
2931.61096258076
20
4296.65343810962
30
0
11
2931.63361258076
21
4297.03848810962
31
0
0
LINE
8
Základní_vrstva
62
92
10
2931.63361258076
20
4297.03848810962
30
0
11
2931.79216258076
21
4297.40088810962
31
0
0
LINE
8
Základní_vrstva
62
92
10
2931.79216258076
20
4297.40088810962
30
0
11
2931.87426883076
21
4297.56793185962
31
0
0
LINE
8
Základní_vrstva
62
92
10
2931.87426883076
20
4297.56793185962
30
0
11
2931.89408758076
21
4297.72931310962
31
0
0
CIRCLE
8
Základní_vrstva
62
92
10
2929.66306258076
20
4297.54811310962
30
0
40
0.1887499999998
0
LINE
8
Základní_vrstva
62
92
10
2929.00541883076
20
4300.20978185962
30
0
11
2928.97144383076
21
4300.36833185962
31
0
0
LINE
8
Základní_vrstva
62
92
10
2928.97144383076
20
4300.36833185962
30
0
11
2928.86951883076
21
4300.52688185962
31
0
0
LINE
8
Základní_vrstva
62
92
10
2928.86951883076
20
4300.52688185962
30
0
11
2928.64301883076
21
4300.87795685962
31
0
0
LINE
8
Základní_vrstva
62
92
10
2928.64301883076
20
4300.87795685962
30
0
11
2928.54109383076
21
4301.26300685962
31
0
0
LINE
8
Základní_vrstva
62
92
10
2928.54109383076
20
4301.26300685962
30
0
11
2928.49579383076
21
4301.44420685962
31
0
0
LINE
8
Základní_vrstva
62
92
10
2928.49579383076
20
4301.44420685962
30
0
11
2928.38254383076
21
4301.60275685962
31
0
0
LINE
8
Základní_vrstva
62
92
10
2928.38254383076
20
4301.60275685962
30
0
11
2928.21833133076
21
4301.72166935962
31
0
0
LINE
8
Základní_vrstva
62
92
10
2928.21833133076
20
4301.72166935962
30
0
11
2928.02014383076
21
4301.78395685962
31
0
0
LINE
8
Základní_vrstva
62
92
10
2928.02014383076
20
4301.78395685962
30
0
11
2927.64641883076
21
4301.88588185962
31
0
0
LINE
8
Základní_vrstva
62
92
10
2927.64641883076
20
4301.88588185962
30
0
11
2927.34064383076
21
4302.10105685962
31
0
0
LINE
8
Základní_vrstva
62
92
10
2927.34064383076
20
4302.10105685962
30
0
11
2927.17926258076
21
4302.21430685962
31
0
0
LINE
8
Základní_vrstva
62
92
10
2927.17926258076
20
4302.21430685962
30
0
11
2926.98956883076
21
4302.25960685962
31
0
0
LINE
8
Základní_vrstva
62
92
10
2926.98956883076
20
4302.25960685962
30
0
11
2926.79421258076
21
4302.23978810962
31
0
0
LINE
8
Základní_vrstva
62
92
10
2926.79421258076
20
4302.23978810962
30
0
11
2926.61584383076
21
4302.15768185962
31
0
0
LINE
8
Základní_vrstva
62
92
10
2926.61584383076
20
4302.15768185962
30
0
11
2926.28741883076
21
4301.99913185962
31
0
0
LINE
8
Základní_vrstva
62
92
10
2926.28741883076
20
4301.99913185962
30
0
11
2925.90236883076
21
4301.96515685962
31
0
0
LINE
8
Základní_vrstva
62
92
10
2925.90236883076
20
4301.96515685962
30
0
11
2925.69285633076
21
4301.94816935962
31
0
0
LINE
8
Základní_vrstva
62
92
10
2925.69285633076
20
4301.94816935962
30
0
11
2925.51731883076
21
4301.87455685962
31
0
0
LINE
8
Základní_vrstva
62
92
10
2925.51731883076
20
4301.87455685962
30
0
11
2925.37858758076
21
4301.74148810962
31
0
0
LINE
8
Základní_vrstva
62
92
10
2925.37858758076
20
4301.74148810962
30
0
11
2925.27949383076
21
4301.54613185962
31
0
0
LINE
8
Základní_vrstva
62
92
10
2925.27949383076
20
4301.54613185962
30
0
11
2925.10961883076
21
4301.19505685962
31
0
0
LINE
8
Základní_vrstva
62
92
10
2925.10961883076
20
4301.19505685962
30
0
11
2924.84914383076
21
4300.93458185962
31
0
0
LINE
8
Základní_vrstva
62
92
10
2924.84914383076
20
4300.93458185962
30
0
11
2924.70758133076
21
4300.77886310962
31
0
0
LINE
8
Základní_vrstva
62
92
10
2924.70758133076
20
4300.77886310962
30
0
11
2924.62264383076
21
4300.58350685962
31
0
0
LINE
8
Základní_vrstva
62
92
10
2924.62264383076
20
4300.58350685962
30
0
11
2924.60282508076
21
4300.37965685962
31
0
0
LINE
8
Základní_vrstva
62
92
10
2924.60282508076
20
4300.37965685962
30
0
11
2924.65661883076
21
4300.19845685962
31
0
0
LINE
8
Základní_vrstva
62
92
10
2924.65661883076
20
4300.19845685962
30
0
11
2924.75854383076
21
4299.84738185962
31
0
0
LINE
8
Základní_vrstva
62
92
10
2924.75854383076
20
4299.84738185962
30
0
11
2924.71324383076
21
4299.47365685962
31
0
0
LINE
8
Základní_vrstva
62
92
10
2924.71324383076
20
4299.47365685962
30
0
11
2924.69342508076
21
4299.28113185962
31
0
0
LINE
8
Základní_vrstva
62
92
10
2924.69342508076
20
4299.28113185962
30
0
11
2924.74721883076
21
4299.08860685962
31
0
0
LINE
8
Základní_vrstva
62
92
10
2924.74721883076
20
4299.08860685962
30
0
11
2924.86330008076
21
4298.91873185962
31
0
0
LINE
8
Základní_vrstva
62
92
10
2924.86330008076
20
4298.91873185962
30
0
11
2925.03034383076
21
4298.79415685962
31
0
0
LINE
8
Základní_vrstva
62
92
10
2925.03034383076
20
4298.79415685962
30
0
11
2925.35876883076
21
4298.56765685962
31
0
0
LINE
8
Základní_vrstva
62
92
10
2925.35876883076
20
4298.56765685962
30
0
11
2925.57394383076
21
4298.26188185962
31
0
0
LINE
8
Základní_vrstva
62
92
10
2925.57394383076
20
4298.26188185962
30
0
11
2925.67586883076
21
4298.10616310962
31
0
0
LINE
8
Základní_vrstva
62
92
10
2925.67586883076
20
4298.10616310962
30
0
11
2925.82309383076
21
4298.00140685962
31
0
0
LINE
8
Základní_vrstva
62
92
10
2925.82309383076
20
4298.00140685962
30
0
11
2926.00429383076
21
4297.95327560962
31
0
0
LINE
8
Základní_vrstva
62
92
10
2926.00429383076
20
4297.95327560962
30
0
11
2926.20814383076
21
4297.96743185962
31
0
0
LINE
8
Základní_vrstva
62
92
10
2926.20814383076
20
4297.96743185962
30
0
11
2926.60451883076
21
4298.00140685962
31
0
0
LINE
8
Základní_vrstva
62
92
10
2926.60451883076
20
4298.00140685962
30
0
11
2926.96691883076
21
4297.89948185962
31
0
0
LINE
8
Základní_vrstva
62
92
10
2926.96691883076
20
4297.89948185962
30
0
11
2927.15661258076
21
4297.84568810962
31
0
0
LINE
8
Základní_vrstva
62
92
10
2927.15661258076
20
4297.84568810962
30
0
11
2927.36329383076
21
4297.86550685962
31
0
0
LINE
8
Základní_vrstva
62
92
10
2927.36329383076
20
4297.86550685962
30
0
11
2927.55015633076
21
4297.94761310962
31
0
0
LINE
8
Základní_vrstva
62
92
10
2927.55015633076
20
4297.94761310962
30
0
11
2927.68039383076
21
4298.08068185962
31
0
0
LINE
8
Základní_vrstva
62
92
10
2927.68039383076
20
4298.08068185962
30
0
11
2927.94086883076
21
4298.35248185962
31
0
0
LINE
8
Základní_vrstva
62
92
10
2927.94086883076
20
4298.35248185962
30
0
11
2928.29194383076
21
4298.51103185962
31
0
0
LINE
8
Základní_vrstva
62
92
10
2928.29194383076
20
4298.51103185962
30
0
11
2928.47031258076
21
4298.59313810962
31
0
0
LINE
8
Základní_vrstva
62
92
10
2928.47031258076
20
4298.59313810962
30
0
11
2928.62036883076
21
4298.74885685962
31
0
0
LINE
8
Základní_vrstva
62
92
10
2928.62036883076
20
4298.74885685962
30
0
11
2928.71663133076
21
4298.94138185962
31
0
0
LINE
8
Základní_vrstva
62
92
10
2928.71663133076
20
4298.94138185962
30
0
11
2928.73361883076
21
4299.13390685962
31
0
0
LINE
8
Základní_vrstva
62
92
10
2928.73361883076
20
4299.13390685962
30
0
11
2928.75626883076
21
4299.51895685962
31
0
0
LINE
8
Základní_vrstva
62
92
10
2928.75626883076
20
4299.51895685962
30
0
11
2928.91481883076
21
4299.88135685962
31
0
0
LINE
8
Základní_vrstva
62
92
10
2928.91481883076
20
4299.88135685962
30
0
11
2928.99692508076
21
4300.04840060962
31
0
0
LINE
8
Základní_vrstva
62
92
10
2928.99692508076
20
4300.04840060962
30
0
11
2929.01674383076
21
4300.20978185962
31
0
0
CIRCLE
8
Základní_vrstva
62
92
10
2926.78571883076
20
4300.02858185962
30
0
40
0.1887499999998
0
LINE
8
Základní_vrstva
62
92
10
2933.37104383076
20
4313.70353185962
30
0
11
2933.33706883076
21
4313.86208185962
31
0
0
LINE
8
Základní_vrstva
62
92
10
2933.33706883076
20
4313.86208185962
30
0
11
2933.23514383076
21
4314.02063185962
31
0
0
LINE
8
Základní_vrstva
62
92
10
2933.23514383076
20
4314.02063185962
30
0
11
2933.00864383076
21
4314.37170685962
31
0
0
LINE
8
Základní_vrstva
62
92
10
2933.00864383076
20
4314.37170685962
30
0
11
2932.90671883076
21
4314.75675685962
31
0
0
LINE
8
Základní_vrstva
62
92
10
2932.90671883076
20
4314.75675685962
30
0
11
2932.86141883076
21
4314.93795685962
31
0
0
LINE
8
Základní_vrstva
62
92
10
2932.86141883076
20
4314.93795685962
30
0
11
2932.74816883076
21
4315.09650685962
31
0
0
LINE
8
Základní_vrstva
62
92
10
2932.74816883076
20
4315.09650685962
30
0
11
2932.58395633076
21
4315.21541935962
31
0
0
LINE
8
Základní_vrstva
62
92
10
2932.58395633076
20
4315.21541935962
30
0
11
2932.38576883076
21
4315.27770685962
31
0
0
LINE
8
Základní_vrstva
62
92
10
2932.38576883076
20
4315.27770685962
30
0
11
2932.01204383076
21
4315.37963185962
31
0
0
LINE
8
Základní_vrstva
62
92
10
2932.01204383076
20
4315.37963185962
30
0
11
2931.70626883076
21
4315.59480685962
31
0
0
LINE
8
Základní_vrstva
62
92
10
2931.70626883076
20
4315.59480685962
30
0
11
2931.54488758076
21
4315.70805685962
31
0
0
LINE
8
Základní_vrstva
62
92
10
2931.54488758076
20
4315.70805685962
30
0
11
2931.35519383076
21
4315.75335685962
31
0
0
LINE
8
Základní_vrstva
62
92
10
2931.35519383076
20
4315.75335685962
30
0
11
2931.15983758076
21
4315.73353810962
31
0
0
LINE
8
Základní_vrstva
62
92
10
2931.15983758076
20
4315.73353810962
30
0
11
2930.98146883076
21
4315.65143185962
31
0
0
LINE
8
Základní_vrstva
62
92
10
2930.98146883076
20
4315.65143185962
30
0
11
2930.65304383076
21
4315.49288185962
31
0
0
LINE
8
Základní_vrstva
62
92
10
2930.65304383076
20
4315.49288185962
30
0
11
2930.26799383076
21
4315.45890685962
31
0
0
LINE
8
Základní_vrstva
62
92
10
2930.26799383076
20
4315.45890685962
30
0
11
2930.05848133076
21
4315.44191935962
31
0
0
LINE
8
Základní_vrstva
62
92
10
2930.05848133076
20
4315.44191935962
30
0
11
2929.88294383076
21
4315.36830685962
31
0
0
LINE
8
Základní_vrstva
62
92
10
2929.88294383076
20
4315.36830685962
30
0
11
2929.74421258076
21
4315.23523810962
31
0
0
LINE
8
Základní_vrstva
62
92
10
2929.74421258076
20
4315.23523810962
30
0
11
2929.64511883076
21
4315.03988185962
31
0
0
LINE
8
Základní_vrstva
62
92
10
2929.64511883076
20
4315.03988185962
30
0
11
2929.47524383076
21
4314.68880685962
31
0
0
LINE
8
Základní_vrstva
62
92
10
2929.47524383076
20
4314.68880685962
30
0
11
2929.21476883076
21
4314.42833185962
31
0
0
LINE
8
Základní_vrstva
62
92
10
2929.21476883076
20
4314.42833185962
30
0
11
2929.07320633076
21
4314.27261310962
31
0
0
LINE
8
Základní_vrstva
62
92
10
2929.07320633076
20
4314.27261310962
30
0
11
2928.98826883076
21
4314.07725685962
31
0
0
LINE
8
Základní_vrstva
62
92
10
2928.98826883076
20
4314.07725685962
30
0
11
2928.96845008076
21
4313.87340685962
31
0
0
LINE
8
Základní_vrstva
62
92
10
2928.96845008076
20
4313.87340685962
30
0
11
2929.02224383076
21
4313.69220685962
31
0
0
LINE
8
Základní_vrstva
62
92
10
2929.02224383076
20
4313.69220685962
30
0
11
2929.12416883076
21
4313.34113185962
31
0
0
LINE
8
Základní_vrstva
62
92
10
2929.12416883076
20
4313.34113185962
30
0
11
2929.07886883076
21
4312.96740685962
31
0
0
LINE
8
Základní_vrstva
62
92
10
2929.07886883076
20
4312.96740685962
30
0
11
2929.05905008076
21
4312.77488185962
31
0
0
LINE
8
Základní_vrstva
62
92
10
2929.05905008076
20
4312.77488185962
30
0
11
2929.11284383076
21
4312.58235685962
31
0
0
LINE
8
Základní_vrstva
62
92
10
2929.11284383076
20
4312.58235685962
30
0
11
2929.22892508076
21
4312.41248185962
31
0
0
LINE
8
Základní_vrstva
62
92
10
2929.22892508076
20
4312.41248185962
30
0
11
2929.39596883076
21
4312.28790685962
31
0
0
LINE
8
Základní_vrstva
62
92
10
2929.39596883076
20
4312.28790685962
30
0
11
2929.72439383076
21
4312.06140685962
31
0
0
LINE
8
Základní_vrstva
62
92
10
2929.72439383076
20
4312.06140685962
30
0
11
2929.93956883076
21
4311.75563185962
31
0
0
LINE
8
Základní_vrstva
62
92
10
2929.93956883076
20
4311.75563185962
30
0
11
2930.04149383076
21
4311.59991310962
31
0
0
LINE
8
Základní_vrstva
62
92
10
2930.04149383076
20
4311.59991310962
30
0
11
2930.18871883076
21
4311.49515685962
31
0
0
LINE
8
Základní_vrstva
62
92
10
2930.18871883076
20
4311.49515685962
30
0
11
2930.36991883076
21
4311.44702560962
31
0
0
LINE
8
Základní_vrstva
62
92
10
2930.36991883076
20
4311.44702560962
30
0
11
2930.57376883076
21
4311.46118185962
31
0
0
LINE
8
Základní_vrstva
62
92
10
2930.57376883076
20
4311.46118185962
30
0
11
2930.97014383076
21
4311.49515685962
31
0
0
LINE
8
Základní_vrstva
62
92
10
2930.97014383076
20
4311.49515685962
30
0
11
2931.33254383076
21
4311.39323185962
31
0
0
LINE
8
Základní_vrstva
62
92
10
2931.33254383076
20
4311.39323185962
30
0
11
2931.52223758076
21
4311.33943810962
31
0
0
LINE
8
Základní_vrstva
62
92
10
2931.52223758076
20
4311.33943810962
30
0
11
2931.72891883076
21
4311.35925685962
31
0
0
LINE
8
Základní_vrstva
62
92
10
2931.72891883076
20
4311.35925685962
30
0
11
2931.91578133076
21
4311.44136310962
31
0
0
LINE
8
Základní_vrstva
62
92
10
2931.91578133076
20
4311.44136310962
30
0
11
2932.04601883076
21
4311.57443185962
31
0
0
LINE
8
Základní_vrstva
62
92
10
2932.04601883076
20
4311.57443185962
30
0
11
2932.30649383076
21
4311.84623185962
31
0
0
LINE
8
Základní_vrstva
62
92
10
2932.30649383076
20
4311.84623185962
30
0
11
2932.65756883076
21
4312.00478185962
31
0
0
LINE
8
Základní_vrstva
62
92
10
2932.65756883076
20
4312.00478185962
30
0
11
2932.83593758076
21
4312.08688810962
31
0
0
LINE
8
Základní_vrstva
62
92
10
2932.83593758076
20
4312.08688810962
30
0
11
2932.98599383076
21
4312.24260685962
31
0
0
LINE
8
Základní_vrstva
62
92
10
2932.98599383076
20
4312.24260685962
30
0
11
2933.08225633076
21
4312.43513185962
31
0
0
LINE
8
Základní_vrstva
62
92
10
2933.08225633076
20
4312.43513185962
30
0
11
2933.09924383076
21
4312.62765685962
31
0
0
LINE
8
Základní_vrstva
62
92
10
2933.09924383076
20
4312.62765685962
30
0
11
2933.12189383076
21
4313.01270685962
31
0
0
LINE
8
Základní_vrstva
62
92
10
2933.12189383076
20
4313.01270685962
30
0
11
2933.28044383076
21
4313.37510685962
31
0
0
LINE
8
Základní_vrstva
62
92
10
2933.28044383076
20
4313.37510685962
30
0
11
2933.36255008076
21
4313.54215060962
31
0
0
LINE
8
Základní_vrstva
62
92
10
2933.36255008076
20
4313.54215060962
30
0
11
2933.38236883076
21
4313.70353185962
31
0
0
CIRCLE
8
Základní_vrstva
62
92
10
2931.15134383076
20
4313.52233185962
30
0
40
0.1887499999998
0
LINE
8
Základní_vrstva
62
92
10
2930.59291883076
20
4317.27540685962
30
0
11
2930.55894383076
21
4317.43395685962
31
0
0
LINE
8
Základní_vrstva
62
92
10
2930.55894383076
20
4317.43395685962
30
0
11
2930.45701883076
21
4317.59250685962
31
0
0
LINE
8
Základní_vrstva
62
92
10
2930.45701883076
20
4317.59250685962
30
0
11
2930.23051883076
21
4317.94358185962
31
0
0
LINE
8
Základní_vrstva
62
92
10
2930.23051883076
20
4317.94358185962
30
0
11
2930.12859383076
21
4318.32863185962
31
0
0
LINE
8
Základní_vrstva
62
92
10
2930.12859383076
20
4318.32863185962
30
0
11
2930.08329383076
21
4318.50983185962
31
0
0
LINE
8
Základní_vrstva
62
92
10
2930.08329383076
20
4318.50983185962
30
0
11
2929.97004383076
21
4318.66838185962
31
0
0
LINE
8
Základní_vrstva
62
92
10
2929.97004383076
20
4318.66838185962
30
0
11
2929.80583133076
21
4318.78729435962
31
0
0
LINE
8
Základní_vrstva
62
92
10
2929.80583133076
20
4318.78729435962
30
0
11
2929.60764383076
21
4318.84958185962
31
0
0
LINE
8
Základní_vrstva
62
92
10
2929.60764383076
20
4318.84958185962
30
0
11
2929.23391883076
21
4318.95150685962
31
0
0
LINE
8
Základní_vrstva
62
92
10
2929.23391883076
20
4318.95150685962
30
0
11
2928.92814383076
21
4319.16668185962
31
0
0
LINE
8
Základní_vrstva
62
92
10
2928.92814383076
20
4319.16668185962
30
0
11
2928.76676258076
21
4319.27993185962
31
0
0
LINE
8
Základní_vrstva
62
92
10
2928.76676258076
20
4319.27993185962
30
0
11
2928.57706883076
21
4319.32523185962
31
0
0
LINE
8
Základní_vrstva
62
92
10
2928.57706883076
20
4319.32523185962
30
0
11
2928.38171258076
21
4319.30541310962
31
0
0
LINE
8
Základní_vrstva
62
92
10
2928.38171258076
20
4319.30541310962
30
0
11
2928.20334383076
21
4319.22330685962
31
0
0
LINE
8
Základní_vrstva
62
92
10
2928.20334383076
20
4319.22330685962
30
0
11
2927.87491883076
21
4319.06475685962
31
0
0
LINE
8
Základní_vrstva
62
92
10
2927.87491883076
20
4319.06475685962
30
0
11
2927.48986883076
21
4319.03078185962
31
0
0
LINE
8
Základní_vrstva
62
92
10
2927.48986883076
20
4319.03078185962
30
0
11
2927.28035633076
21
4319.01379435962
31
0
0
LINE
8
Základní_vrstva
62
92
10
2927.28035633076
20
4319.01379435962
30
0
11
2927.10481883076
21
4318.94018185962
31
0
0
LINE
8
Základní_vrstva
62
92
10
2927.10481883076
20
4318.94018185962
30
0
11
2926.96608758076
21
4318.80711310962
31
0
0
LINE
8
Základní_vrstva
62
92
10
2926.96608758076
20
4318.80711310962
30
0
11
2926.86699383076
21
4318.61175685962
31
0
0
LINE
8
Základní_vrstva
62
92
10
2926.86699383076
20
4318.61175685962
30
0
11
2926.69711883076
21
4318.26068185962
31
0
0
LINE
8
Základní_vrstva
62
92
10
2926.69711883076
20
4318.26068185962
30
0
11
2926.43664383076
21
4318.00020685962
31
0
0
LINE
8
Základní_vrstva
62
92
10
2926.43664383076
20
4318.00020685962
30
0
11
2926.29508133076
21
4317.84448810962
31
0
0
LINE
8
Základní_vrstva
62
92
10
2926.29508133076
20
4317.84448810962
30
0
11
2926.21014383076
21
4317.64913185962
31
0
0
LINE
8
Základní_vrstva
62
92
10
2926.21014383076
20
4317.64913185962
30
0
11
2926.19032508076
21
4317.44528185962
31
0
0
LINE
8
Základní_vrstva
62
92
10
2926.19032508076
20
4317.44528185962
30
0
11
2926.24411883076
21
4317.26408185962
31
0
0
LINE
8
Základní_vrstva
62
92
10
2926.24411883076
20
4317.26408185962
30
0
11
2926.34604383076
21
4316.91300685962
31
0
0
LINE
8
Základní_vrstva
62
92
10
2926.34604383076
20
4316.91300685962
30
0
11
2926.30074383076
21
4316.53928185962
31
0
0
LINE
8
Základní_vrstva
62
92
10
2926.30074383076
20
4316.53928185962
30
0
11
2926.28092508076
21
4316.34675685962
31
0
0
LINE
8
Základní_vrstva
62
92
10
2926.28092508076
20
4316.34675685962
30
0
11
2926.33471883076
21
4316.15423185962
31
0
0
LINE
8
Základní_vrstva
62
92
10
2926.33471883076
20
4316.15423185962
30
0
11
2926.45080008076
21
4315.98435685962
31
0
0
LINE
8
Základní_vrstva
62
92
10
2926.45080008076
20
4315.98435685962
30
0
11
2926.61784383076
21
4315.85978185962
31
0
0
LINE
8
Základní_vrstva
62
92
10
2926.61784383076
20
4315.85978185962
30
0
11
2926.94626883076
21
4315.63328185962
31
0
0
LINE
8
Základní_vrstva
62
92
10
2926.94626883076
20
4315.63328185962
30
0
11
2927.16144383076
21
4315.32750685962
31
0
0
LINE
8
Základní_vrstva
62
92
10
2927.16144383076
20
4315.32750685962
30
0
11
2927.26336883076
21
4315.17178810962
31
0
0
LINE
8
Základní_vrstva
62
92
10
2927.26336883076
20
4315.17178810962
30
0
11
2927.41059383076
21
4315.06703185962
31
0
0
LINE
8
Základní_vrstva
62
92
10
2927.41059383076
20
4315.06703185962
30
0
11
2927.59179383076
21
4315.01890060962
31
0
0
LINE
8
Základní_vrstva
62
92
10
2927.59179383076
20
4315.01890060962
30
0
11
2927.79564383076
21
4315.03305685962
31
0
0
LINE
8
Základní_vrstva
62
92
10
2927.79564383076
20
4315.03305685962
30
0
11
2928.19201883076
21
4315.06703185962
31
0
0
LINE
8
Základní_vrstva
62
92
10
2928.19201883076
20
4315.06703185962
30
0
11
2928.55441883076
21
4314.96510685962
31
0
0
LINE
8
Základní_vrstva
62
92
10
2928.55441883076
20
4314.96510685962
30
0
11
2928.74411258076
21
4314.91131310962
31
0
0
LINE
8
Základní_vrstva
62
92
10
2928.74411258076
20
4314.91131310962
30
0
11
2928.95079383076
21
4314.93113185962
31
0
0
LINE
8
Základní_vrstva
62
92
10
2928.95079383076
20
4314.93113185962
30
0
11
2929.13765633076
21
4315.01323810962
31
0
0
LINE
8
Základní_vrstva
62
92
10
2929.13765633076
20
4315.01323810962
30
0
11
2929.26789383076
21
4315.14630685962
31
0
0
LINE
8
Základní_vrstva
62
92
10
2929.26789383076
20
4315.14630685962
30
0
11
2929.52836883076
21
4315.41810685962
31
0
0
LINE
8
Základní_vrstva
62
92
10
2929.52836883076
20
4315.41810685962
30
0
11
2929.87944383076
21
4315.57665685962
31
0
0
LINE
8
Základní_vrstva
62
92
10
2929.87944383076
20
4315.57665685962
30
0
11
2930.05781258076
21
4315.65876310962
31
0
0
LINE
8
Základní_vrstva
62
92
10
2930.05781258076
20
4315.65876310962
30
0
11
2930.20786883076
21
4315.81448185962
31
0
0
LINE
8
Základní_vrstva
62
92
10
2930.20786883076
20
4315.81448185962
30
0
11
2930.30413133076
21
4316.00700685962
31
0
0
LINE
8
Základní_vrstva
62
92
10
2930.30413133076
20
4316.00700685962
30
0
11
2930.32111883076
21
4316.19953185962
31
0
0
LINE
8
Základní_vrstva
62
92
10
2930.32111883076
20
4316.19953185962
30
0
11
2930.34376883076
21
4316.58458185962
31
0
0
LINE
8
Základní_vrstva
62
92
10
2930.34376883076
20
4316.58458185962
30
0
11
2930.50231883076
21
4316.94698185962
31
0
0
LINE
8
Základní_vrstva
62
92
10
2930.50231883076
20
4316.94698185962
30
0
11
2930.58442508076
21
4317.11402560962
31
0
0
LINE
8
Základní_vrstva
62
92
10
2930.58442508076
20
4317.11402560962
30
0
11
2930.60424383076
21
4317.27540685962
31
0
0
CIRCLE
8
Základní_vrstva
62
92
10
2928.37321883076
20
4317.09420685962
30
0
40
0.1887499999998
0
LINE
8
Základní_vrstva
62
92
10
2934.22712508076
20
4330.88561310962
30
0
11
2928.86931258076
21
4319.47545685962
31
0
0
TEXT
8
Základní_vrstva
62
92
10
2933.44900008076
20
4336.62467560962
30
0
40
3
50
0
11
2933.44900008076
21
4336.62467560962
31
0
1
3
72
0
73
3
0
LINE
8
Základní_vrstva
62
92
10
2923.41228133076
20
4285.54264435962
30
0
11
2931.25056258076
21
4293.97623810962
31
0
0
TEXT
8
Základní_vrstva
62
92
10
2921.05446883076
20
4285.12233185962
30
0
40
3
50
0
11
2921.05446883076
21
4285.12233185962
31
0
1
3
72
0
73
3
0
LINE
8
Základní_vrstva
62
190
10
2928.96492508076
20
4313.90878810962
30
0
11
2928.89832508076
21
4314.06418810962
31
0
0
LINE
8
Základní_vrstva
62
190
10
2928.89832508076
20
4314.06418810962
30
0
11
2928.78732508076
21
4314.23623810962
31
0
0
LINE
8
Základní_vrstva
62
190
10
2928.78732508076
20
4314.23623810962
30
0
11
2928.73737508076
21
4314.42493810962
31
0
0
LINE
8
Základní_vrstva
62
190
10
2928.73737508076
20
4314.42493810962
30
0
11
2928.65967508076
21
4314.59143810962
31
0
0
LINE
8
Základní_vrstva
62
190
10
2928.65967508076
20
4314.59143810962
30
0
11
2928.48207508076
21
4314.68023810962
31
0
0
LINE
8
Základní_vrstva
62
190
10
2928.48207508076
20
4314.68023810962
30
0
11
2928.29892508076
21
4314.73018810962
31
0
0
LINE
8
Základní_vrstva
62
190
10
2928.29892508076
20
4314.73018810962
30
0
11
2928.14907508076
21
4314.83563810962
31
0
0
LINE
8
Základní_vrstva
62
190
10
2928.14907508076
20
4314.83563810962
30
0
11
2927.97702508076
21
4314.91333810962
31
0
0
LINE
8
Základní_vrstva
62
190
10
2927.97702508076
20
4314.91333810962
30
0
11
2927.79387508076
21
4314.86338810962
31
0
0
LINE
8
Základní_vrstva
62
190
10
2927.79387508076
20
4314.86338810962
30
0
11
2927.63292508076
21
4314.78568810962
31
0
0
LINE
8
Základní_vrstva
62
190
10
2927.63292508076
20
4314.78568810962
30
0
11
2927.44422508076
21
4314.76903810962
31
0
0
LINE
8
Základní_vrstva
62
190
10
2927.44422508076
20
4314.76903810962
30
0
11
2927.25552508076
21
4314.72463810962
31
0
0
LINE
8
Základní_vrstva
62
190
10
2927.25552508076
20
4314.72463810962
30
0
11
2927.13897508076
21
4314.56368810962
31
0
0
LINE
8
Základní_vrstva
62
190
10
2927.13897508076
20
4314.56368810962
30
0
11
2927.05572508076
21
4314.39163810962
31
0
0
LINE
8
Základní_vrstva
62
190
10
2927.05572508076
20
4314.39163810962
30
0
11
2926.92807508076
21
4314.26398810962
31
0
0
LINE
8
Základní_vrstva
62
190
10
2926.92807508076
20
4314.26398810962
30
0
11
2926.81707508076
21
4314.09193810962
31
0
0
LINE
8
Základní_vrstva
62
190
10
2926.81707508076
20
4314.09193810962
30
0
11
2926.83372508076
21
4313.90323810962
31
0
0
LINE
8
Základní_vrstva
62
190
10
2926.83372508076
20
4313.90323810962
30
0
11
2926.88367508076
21
4313.73118810962
31
0
0
LINE
8
Základní_vrstva
62
190
10
2926.88367508076
20
4313.73118810962
30
0
11
2926.86147508076
21
4313.54803810962
31
0
0
LINE
8
Základní_vrstva
62
190
10
2926.86147508076
20
4313.54803810962
30
0
11
2926.87812508076
21
4313.35933810962
31
0
0
LINE
8
Základní_vrstva
62
190
10
2926.87812508076
20
4313.35933810962
30
0
11
2927.01687508076
21
4313.21503810962
31
0
0
LINE
8
Základní_vrstva
62
190
10
2927.01687508076
20
4313.21503810962
30
0
11
2927.17782508076
21
4313.10403810962
31
0
0
LINE
8
Základní_vrstva
62
190
10
2927.17782508076
20
4313.10403810962
30
0
11
2927.28327508076
21
4312.95418810962
31
0
0
LINE
8
Základní_vrstva
62
190
10
2927.28327508076
20
4312.95418810962
30
0
11
2927.40537508076
21
4312.82653810962
31
0
0
LINE
8
Základní_vrstva
62
190
10
2927.40537508076
20
4312.82653810962
30
0
11
2927.59407508076
21
4312.80988810962
31
0
0
LINE
8
Základní_vrstva
62
190
10
2927.59407508076
20
4312.80988810962
30
0
11
2927.78832508076
21
4312.82653810962
31
0
0
LINE
8
Základní_vrstva
62
190
10
2927.78832508076
20
4312.82653810962
30
0
11
2927.96592508076
21
4312.77658810962
31
0
0
LINE
8
Základní_vrstva
62
190
10
2927.96592508076
20
4312.77658810962
30
0
11
2928.16017508076
21
4312.75993810962
31
0
0
LINE
8
Základní_vrstva
62
190
10
2928.16017508076
20
4312.75993810962
30
0
11
2928.31557508076
21
4312.86538810962
31
0
0
LINE
8
Základní_vrstva
62
190
10
2928.31557508076
20
4312.86538810962
30
0
11
2928.44322508076
21
4312.99858810962
31
0
0
LINE
8
Základní_vrstva
62
190
10
2928.44322508076
20
4312.99858810962
30
0
11
2928.61527508076
21
4313.07628810962
31
0
0
LINE
8
Základní_vrstva
62
190
10
2928.61527508076
20
4313.07628810962
30
0
11
2928.77622508076
21
4313.19283810962
31
0
0
LINE
8
Základní_vrstva
62
190
10
2928.77622508076
20
4313.19283810962
30
0
11
2928.83172508076
21
4313.38153810962
31
0
0
LINE
8
Základní_vrstva
62
190
10
2928.83172508076
20
4313.38153810962
30
0
11
2928.84282508076
21
4313.57023810962
31
0
0
LINE
8
Základní_vrstva
62
190
10
2928.84282508076
20
4313.57023810962
30
0
11
2928.92052508076
21
4313.74783810962
31
0
0
LINE
8
Základní_vrstva
62
190
10
2928.92052508076
20
4313.74783810962
30
0
11
2928.97047508076
21
4313.90878810962
31
0
0
CIRCLE
8
Základní_vrstva
62
190
10
2927.87712508076
20
4313.81998810962
30
0
40
0.0925000000002001
0
LINE
8
Základní_vrstva
62
190
10
2927.07976883076
20
4315.00019435962
30
0
11
2927.01316883076
21
4315.15559435962
31
0
0
LINE
8
Základní_vrstva
62
190
10
2927.01316883076
20
4315.15559435962
30
0
11
2926.90216883076
21
4315.32764435962
31
0
0
LINE
8
Základní_vrstva
62
190
10
2926.90216883076
20
4315.32764435962
30
0
11
2926.85221883076
21
4315.51634435962
31
0
0
LINE
8
Základní_vrstva
62
190
10
2926.85221883076
20
4315.51634435962
30
0
11
2926.77451883076
21
4315.68284435962
31
0
0
LINE
8
Základní_vrstva
62
190
10
2926.77451883076
20
4315.68284435962
30
0
11
2926.59691883076
21
4315.77164435962
31
0
0
LINE
8
Základní_vrstva
62
190
10
2926.59691883076
20
4315.77164435962
30
0
11
2926.41376883076
21
4315.82159435962
31
0
0
LINE
8
Základní_vrstva
62
190
10
2926.41376883076
20
4315.82159435962
30
0
11
2926.26391883076
21
4315.92704435962
31
0
0
LINE
8
Základní_vrstva
62
190
10
2926.26391883076
20
4315.92704435962
30
0
11
2926.09186883076
21
4316.00474435962
31
0
0
LINE
8
Základní_vrstva
62
190
10
2926.09186883076
20
4316.00474435962
30
0
11
2925.90871883076
21
4315.95479435962
31
0
0
LINE
8
Základní_vrstva
62
190
10
2925.90871883076
20
4315.95479435962
30
0
11
2925.74776883076
21
4315.87709435962
31
0
0
LINE
8
Základní_vrstva
62
190
10
2925.74776883076
20
4315.87709435962
30
0
11
2925.55906883076
21
4315.86044435962
31
0
0
LINE
8
Základní_vrstva
62
190
10
2925.55906883076
20
4315.86044435962
30
0
11
2925.37036883076
21
4315.81604435962
31
0
0
LINE
8
Základní_vrstva
62
190
10
2925.37036883076
20
4315.81604435962
30
0
11
2925.25381883076
21
4315.65509435962
31
0
0
LINE
8
Základní_vrstva
62
190
10
2925.25381883076
20
4315.65509435962
30
0
11
2925.17056883076
21
4315.48304435962
31
0
0
LINE
8
Základní_vrstva
62
190
10
2925.17056883076
20
4315.48304435962
30
0
11
2925.04291883076
21
4315.35539435962
31
0
0
LINE
8
Základní_vrstva
62
190
10
2925.04291883076
20
4315.35539435962
30
0
11
2924.93191883076
21
4315.18334435962
31
0
0
LINE
8
Základní_vrstva
62
190
10
2924.93191883076
20
4315.18334435962
30
0
11
2924.94856883076
21
4314.99464435962
31
0
0
LINE
8
Základní_vrstva
62
190
10
2924.94856883076
20
4314.99464435962
30
0
11
2924.99851883076
21
4314.82259435962
31
0
0
LINE
8
Základní_vrstva
62
190
10
2924.99851883076
20
4314.82259435962
30
0
11
2924.97631883076
21
4314.63944435962
31
0
0
LINE
8
Základní_vrstva
62
190
10
2924.97631883076
20
4314.63944435962
30
0
11
2924.99296883076
21
4314.45074435962
31
0
0
LINE
8
Základní_vrstva
62
190
10
2924.99296883076
20
4314.45074435962
30
0
11
2925.13171883076
21
4314.30644435962
31
0
0
LINE
8
Základní_vrstva
62
190
10
2925.13171883076
20
4314.30644435962
30
0
11
2925.29266883076
21
4314.19544435962
31
0
0
LINE
8
Základní_vrstva
62
190
10
2925.29266883076
20
4314.19544435962
30
0
11
2925.39811883076
21
4314.04559435962
31
0
0
LINE
8
Základní_vrstva
62
190
10
2925.39811883076
20
4314.04559435962
30
0
11
2925.52021883076
21
4313.91794435962
31
0
0
LINE
8
Základní_vrstva
62
190
10
2925.52021883076
20
4313.91794435962
30
0
11
2925.70891883076
21
4313.90129435962
31
0
0
LINE
8
Základní_vrstva
62
190
10
2925.70891883076
20
4313.90129435962
30
0
11
2925.90316883076
21
4313.91794435962
31
0
0
LINE
8
Základní_vrstva
62
190
10
2925.90316883076
20
4313.91794435962
30
0
11
2926.08076883076
21
4313.86799435962
31
0
0
LINE
8
Základní_vrstva
62
190
10
2926.08076883076
20
4313.86799435962
30
0
11
2926.27501883076
21
4313.85134435962
31
0
0
LINE
8
Základní_vrstva
62
190
10
2926.27501883076
20
4313.85134435962
30
0
11
2926.43041883076
21
4313.95679435962
31
0
0
LINE
8
Základní_vrstva
62
190
10
2926.43041883076
20
4313.95679435962
30
0
11
2926.55806883076
21
4314.08999435962
31
0
0
LINE
8
Základní_vrstva
62
190
10
2926.55806883076
20
4314.08999435962
30
0
11
2926.73011883076
21
4314.16769435962
31
0
0
LINE
8
Základní_vrstva
62
190
10
2926.73011883076
20
4314.16769435962
30
0
11
2926.89106883076
21
4314.28424435962
31
0
0
LINE
8
Základní_vrstva
62
190
10
2926.89106883076
20
4314.28424435962
30
0
11
2926.94656883076
21
4314.47294435962
31
0
0
LINE
8
Základní_vrstva
62
190
10
2926.94656883076
20
4314.47294435962
30
0
11
2926.95766883076
21
4314.66164435962
31
0
0
LINE
8
Základní_vrstva
62
190
10
2926.95766883076
20
4314.66164435962
30
0
11
2927.03536883076
21
4314.83924435962
31
0
0
LINE
8
Základní_vrstva
62
190
10
2927.03536883076
20
4314.83924435962
30
0
11
2927.08531883076
21
4315.00019435962
31
0
0
CIRCLE
8
Základní_vrstva
62
190
10
2925.99196883076
20
4314.91139435962
30
0
40
0.0925000000002001
0
LINE
8
Základní_vrstva
62
190
10
2926.18680008076
20
4317.18300685962
30
0
11
2926.12020008076
21
4317.33840685962
31
0
0
LINE
8
Základní_vrstva
62
190
10
2926.12020008076
20
4317.33840685962
30
0
11
2926.00920008076
21
4317.51045685962
31
0
0
LINE
8
Základní_vrstva
62
190
10
2926.00920008076
20
4317.51045685962
30
0
11
2925.95925008076
21
4317.69915685962
31
0
0
LINE
8
Základní_vrstva
62
190
10
2925.95925008076
20
4317.69915685962
30
0
11
2925.88155008076
21
4317.86565685962
31
0
0
LINE
8
Základní_vrstva
62
190
10
2925.88155008076
20
4317.86565685962
30
0
11
2925.70395008076
21
4317.95445685962
31
0
0
LINE
8
Základní_vrstva
62
190
10
2925.70395008076
20
4317.95445685962
30
0
11
2925.52080008076
21
4318.00440685962
31
0
0
LINE
8
Základní_vrstva
62
190
10
2925.52080008076
20
4318.00440685962
30
0
11
2925.37095008076
21
4318.10985685962
31
0
0
LINE
8
Základní_vrstva
62
190
10
2925.37095008076
20
4318.10985685962
30
0
11
2925.19890008076
21
4318.18755685962
31
0
0
LINE
8
Základní_vrstva
62
190
10
2925.19890008076
20
4318.18755685962
30
0
11
2925.01575008076
21
4318.13760685962
31
0
0
LINE
8
Základní_vrstva
62
190
10
2925.01575008076
20
4318.13760685962
30
0
11
2924.85480008076
21
4318.05990685962
31
0
0
LINE
8
Základní_vrstva
62
190
10
2924.85480008076
20
4318.05990685962
30
0
11
2924.66610008076
21
4318.04325685962
31
0
0
LINE
8
Základní_vrstva
62
190
10
2924.66610008076
20
4318.04325685962
30
0
11
2924.47740008076
21
4317.99885685962
31
0
0
LINE
8
Základní_vrstva
62
190
10
2924.47740008076
20
4317.99885685962
30
0
11
2924.36085008076
21
4317.83790685962
31
0
0
LINE
8
Základní_vrstva
62
190
10
2924.36085008076
20
4317.83790685962
30
0
11
2924.27760008076
21
4317.66585685962
31
0
0
LINE
8
Základní_vrstva
62
190
10
2924.27760008076
20
4317.66585685962
30
0
11
2924.14995008076
21
4317.53820685962
31
0
0
LINE
8
Základní_vrstva
62
190
10
2924.14995008076
20
4317.53820685962
30
0
11
2924.03895008076
21
4317.36615685962
31
0
0
LINE
8
Základní_vrstva
62
190
10
2924.03895008076
20
4317.36615685962
30
0
11
2924.05560008076
21
4317.17745685962
31
0
0
LINE
8
Základní_vrstva
62
190
10
2924.05560008076
20
4317.17745685962
30
0
11
2924.10555008076
21
4317.00540685962
31
0
0
LINE
8
Základní_vrstva
62
190
10
2924.10555008076
20
4317.00540685962
30
0
11
2924.08335008076
21
4316.82225685962
31
0
0
LINE
8
Základní_vrstva
62
190
10
2924.08335008076
20
4316.82225685962
30
0
11
2924.10000008076
21
4316.63355685962
31
0
0
LINE
8
Základní_vrstva
62
190
10
2924.10000008076
20
4316.63355685962
30
0
11
2924.23875008076
21
4316.48925685962
31
0
0
LINE
8
Základní_vrstva
62
190
10
2924.23875008076
20
4316.48925685962
30
0
11
2924.39970008076
21
4316.37825685962
31
0
0
LINE
8
Základní_vrstva
62
190
10
2924.39970008076
20
4316.37825685962
30
0
11
2924.50515008076
21
4316.22840685962
31
0
0
LINE
8
Základní_vrstva
62
190
10
2924.50515008076
20
4316.22840685962
30
0
11
2924.62725008076
21
4316.10075685962
31
0
0
LINE
8
Základní_vrstva
62
190
10
2924.62725008076
20
4316.10075685962
30
0
11
2924.81595008076
21
4316.08410685962
31
0
0
LINE
8
Základní_vrstva
62
190
10
2924.81595008076
20
4316.08410685962
30
0
11
2925.01020008076
21
4316.10075685962
31
0
0
LINE
8
Základní_vrstva
62
190
10
2925.01020008076
20
4316.10075685962
30
0
11
2925.18780008076
21
4316.05080685962
31
0
0
LINE
8
Základní_vrstva
62
190
10
2925.18780008076
20
4316.05080685962
30
0
11
2925.38205008076
21
4316.03415685962
31
0
0
LINE
8
Základní_vrstva
62
190
10
2925.38205008076
20
4316.03415685962
30
0
11
2925.53745008076
21
4316.13960685962
31
0
0
LINE
8
Základní_vrstva
62
190
10
2925.53745008076
20
4316.13960685962
30
0
11
2925.66510008076
21
4316.27280685962
31
0
0
LINE
8
Základní_vrstva
62
190
10
2925.66510008076
20
4316.27280685962
30
0
11
2925.83715008076
21
4316.35050685962
31
0
0
LINE
8
Základní_vrstva
62
190
10
2925.83715008076
20
4316.35050685962
30
0
11
2925.99810008076
21
4316.46705685962
31
0
0
LINE
8
Základní_vrstva
62
190
10
2925.99810008076
20
4316.46705685962
30
0
11
2926.05360008076
21
4316.65575685962
31
0
0
LINE
8
Základní_vrstva
62
190
10
2926.05360008076
20
4316.65575685962
30
0
11
2926.06470008076
21
4316.84445685962
31
0
0
LINE
8
Základní_vrstva
62
190
10
2926.06470008076
20
4316.84445685962
30
0
11
2926.14240008076
21
4317.02205685962
31
0
0
LINE
8
Základní_vrstva
62
190
10
2926.14240008076
20
4317.02205685962
30
0
11
2926.19235008076
21
4317.18300685962
31
0
0
CIRCLE
8
Základní_vrstva
62
190
10
2925.09900008076
20
4317.09420685962
30
0
40
0.0925000000002001
0
LINE
8
Základní_vrstva
62
190
10
2924.00398758076
20
4317.48066310962
30
0
11
2923.93738758076
21
4317.63606310962
31
0
0
LINE
8
Základní_vrstva
62
190
10
2923.93738758076
20
4317.63606310962
30
0
11
2923.82638758076
21
4317.80811310962
31
0
0
LINE
8
Základní_vrstva
62
190
10
2923.82638758076
20
4317.80811310962
30
0
11
2923.77643758076
21
4317.99681310962
31
0
0
LINE
8
Základní_vrstva
62
190
10
2923.77643758076
20
4317.99681310962
30
0
11
2923.69873758076
21
4318.16331310962
31
0
0
LINE
8
Základní_vrstva
62
190
10
2923.69873758076
20
4318.16331310962
30
0
11
2923.52113758076
21
4318.25211310962
31
0
0
LINE
8
Základní_vrstva
62
190
10
2923.52113758076
20
4318.25211310962
30
0
11
2923.33798758076
21
4318.30206310962
31
0
0
LINE
8
Základní_vrstva
62
190
10
2923.33798758076
20
4318.30206310962
30
0
11
2923.18813758076
21
4318.40751310962
31
0
0
LINE
8
Základní_vrstva
62
190
10
2923.18813758076
20
4318.40751310962
30
0
11
2923.01608758076
21
4318.48521310962
31
0
0
LINE
8
Základní_vrstva
62
190
10
2923.01608758076
20
4318.48521310962
30
0
11
2922.83293758076
21
4318.43526310962
31
0
0
LINE
8
Základní_vrstva
62
190
10
2922.83293758076
20
4318.43526310962
30
0
11
2922.67198758076
21
4318.35756310962
31
0
0
LINE
8
Základní_vrstva
62
190
10
2922.67198758076
20
4318.35756310962
30
0
11
2922.48328758076
21
4318.34091310962
31
0
0
LINE
8
Základní_vrstva
62
190
10
2922.48328758076
20
4318.34091310962
30
0
11
2922.29458758076
21
4318.29651310962
31
0
0
LINE
8
Základní_vrstva
62
190
10
2922.29458758076
20
4318.29651310962
30
0
11
2922.17803758076
21
4318.13556310962
31
0
0
LINE
8
Základní_vrstva
62
190
10
2922.17803758076
20
4318.13556310962
30
0
11
2922.09478758076
21
4317.96351310962
31
0
0
LINE
8
Základní_vrstva
62
190
10
2922.09478758076
20
4317.96351310962
30
0
11
2921.96713758076
21
4317.83586310962
31
0
0
LINE
8
Základní_vrstva
62
190
10
2921.96713758076
20
4317.83586310962
30
0
11
2921.85613758076
21
4317.66381310962
31
0
0
LINE
8
Základní_vrstva
62
190
10
2921.85613758076
20
4317.66381310962
30
0
11
2921.87278758076
21
4317.47511310962
31
0
0
LINE
8
Základní_vrstva
62
190
10
2921.87278758076
20
4317.47511310962
30
0
11
2921.92273758076
21
4317.30306310962
31
0
0
LINE
8
Základní_vrstva
62
190
10
2921.92273758076
20
4317.30306310962
30
0
11
2921.90053758076
21
4317.11991310962
31
0
0
LINE
8
Základní_vrstva
62
190
10
2921.90053758076
20
4317.11991310962
30
0
11
2921.91718758076
21
4316.93121310962
31
0
0
LINE
8
Základní_vrstva
62
190
10
2921.91718758076
20
4316.93121310962
30
0
11
2922.05593758076
21
4316.78691310962
31
0
0
LINE
8
Základní_vrstva
62
190
10
2922.05593758076
20
4316.78691310962
30
0
11
2922.21688758076
21
4316.67591310962
31
0
0
LINE
8
Základní_vrstva
62
190
10
2922.21688758076
20
4316.67591310962
30
0
11
2922.32233758076
21
4316.52606310962
31
0
0
LINE
8
Základní_vrstva
62
190
10
2922.32233758076
20
4316.52606310962
30
0
11
2922.44443758076
21
4316.39841310962
31
0
0
LINE
8
Základní_vrstva
62
190
10
2922.44443758076
20
4316.39841310962
30
0
11
2922.63313758076
21
4316.38176310962
31
0
0
LINE
8
Základní_vrstva
62
190
10
2922.63313758076
20
4316.38176310962
30
0
11
2922.82738758076
21
4316.39841310962
31
0
0
LINE
8
Základní_vrstva
62
190
10
2922.82738758076
20
4316.39841310962
30
0
11
2923.00498758076
21
4316.34846310962
31
0
0
LINE
8
Základní_vrstva
62
190
10
2923.00498758076
20
4316.34846310962
30
0
11
2923.19923758076
21
4316.33181310962
31
0
0
LINE
8
Základní_vrstva
62
190
10
2923.19923758076
20
4316.33181310962
30
0
11
2923.35463758076
21
4316.43726310962
31
0
0
LINE
8
Základní_vrstva
62
190
10
2923.35463758076
20
4316.43726310962
30
0
11
2923.48228758076
21
4316.57046310962
31
0
0
LINE
8
Základní_vrstva
62
190
10
2923.48228758076
20
4316.57046310962
30
0
11
2923.65433758076
21
4316.64816310962
31
0
0
LINE
8
Základní_vrstva
62
190
10
2923.65433758076
20
4316.64816310962
30
0
11
2923.81528758076
21
4316.76471310962
31
0
0
LINE
8
Základní_vrstva
62
190
10
2923.81528758076
20
4316.76471310962
30
0
11
2923.87078758076
21
4316.95341310962
31
0
0
LINE
8
Základní_vrstva
62
190
10
2923.87078758076
20
4316.95341310962
30
0
11
2923.88188758076
21
4317.14211310962
31
0
0
LINE
8
Základní_vrstva
62
190
10
2923.88188758076
20
4317.14211310962
30
0
11
2923.95958758076
21
4317.31971310962
31
0
0
LINE
8
Základní_vrstva
62
190
10
2923.95958758076
20
4317.31971310962
30
0
11
2924.00953758076
21
4317.48066310962
31
0
0
CIRCLE
8
Základní_vrstva
62
190
10
2922.91618758076
20
4317.39186310962
30
0
40
0.0925000000002001
0
LINE
8
Základní_vrstva
62
190
10
2924.79773758076
20
4315.39706935962
30
0
11
2924.73113758076
21
4315.55246935962
31
0
0
LINE
8
Základní_vrstva
62
190
10
2924.73113758076
20
4315.55246935962
30
0
11
2924.62013758076
21
4315.72451935962
31
0
0
LINE
8
Základní_vrstva
62
190
10
2924.62013758076
20
4315.72451935962
30
0
11
2924.57018758076
21
4315.91321935962
31
0
0
LINE
8
Základní_vrstva
62
190
10
2924.57018758076
20
4315.91321935962
30
0
11
2924.49248758076
21
4316.07971935962
31
0
0
LINE
8
Základní_vrstva
62
190
10
2924.49248758076
20
4316.07971935962
30
0
11
2924.31488758076
21
4316.16851935962
31
0
0
LINE
8
Základní_vrstva
62
190
10
2924.31488758076
20
4316.16851935962
30
0
11
2924.13173758076
21
4316.21846935962
31
0
0
LINE
8
Základní_vrstva
62
190
10
2924.13173758076
20
4316.21846935962
30
0
11
2923.98188758076
21
4316.32391935962
31
0
0
LINE
8
Základní_vrstva
62
190
10
2923.98188758076
20
4316.32391935962
30
0
11
2923.80983758076
21
4316.40161935962
31
0
0
LINE
8
Základní_vrstva
62
190
10
2923.80983758076
20
4316.40161935962
30
0
11
2923.62668758076
21
4316.35166935962
31
0
0
LINE
8
Základní_vrstva
62
190
10
2923.62668758076
20
4316.35166935962
30
0
11
2923.46573758076
21
4316.27396935962
31
0
0
LINE
8
Základní_vrstva
62
190
10
2923.46573758076
20
4316.27396935962
30
0
11
2923.27703758076
21
4316.25731935962
31
0
0
LINE
8
Základní_vrstva
62
190
10
2923.27703758076
20
4316.25731935962
30
0
11
2923.08833758076
21
4316.21291935962
31
0
0
LINE
8
Základní_vrstva
62
190
10
2923.08833758076
20
4316.21291935962
30
0
11
2922.97178758076
21
4316.05196935962
31
0
0
LINE
8
Základní_vrstva
62
190
10
2922.97178758076
20
4316.05196935962
30
0
11
2922.88853758076
21
4315.87991935962
31
0
0
LINE
8
Základní_vrstva
62
190
10
2922.88853758076
20
4315.87991935962
30
0
11
2922.76088758076
21
4315.75226935962
31
0
0
LINE
8
Základní_vrstva
62
190
10
2922.76088758076
20
4315.75226935962
30
0
11
2922.64988758076
21
4315.58021935962
31
0
0
LINE
8
Základní_vrstva
62
190
10
2922.64988758076
20
4315.58021935962
30
0
11
2922.66653758076
21
4315.39151935962
31
0
0
LINE
8
Základní_vrstva
62
190
10
2922.66653758076
20
4315.39151935962
30
0
11
2922.71648758076
21
4315.21946935962
31
0
0
LINE
8
Základní_vrstva
62
190
10
2922.71648758076
20
4315.21946935962
30
0
11
2922.69428758076
21
4315.03631935962
31
0
0
LINE
8
Základní_vrstva
62
190
10
2922.69428758076
20
4315.03631935962
30
0
11
2922.71093758076
21
4314.84761935962
31
0
0
LINE
8
Základní_vrstva
62
190
10
2922.71093758076
20
4314.84761935962
30
0
11
2922.84968758076
21
4314.70331935962
31
0
0
LINE
8
Základní_vrstva
62
190
10
2922.84968758076
20
4314.70331935962
30
0
11
2923.01063758076
21
4314.59231935962
31
0
0
LINE
8
Základní_vrstva
62
190
10
2923.01063758076
20
4314.59231935962
30
0
11
2923.11608758076
21
4314.44246935962
31
0
0
LINE
8
Základní_vrstva
62
190
10
2923.11608758076
20
4314.44246935962
30
0
11
2923.23818758076
21
4314.31481935962
31
0
0
LINE
8
Základní_vrstva
62
190
10
2923.23818758076
20
4314.31481935962
30
0
11
2923.42688758076
21
4314.29816935962
31
0
0
LINE
8
Základní_vrstva
62
190
10
2923.42688758076
20
4314.29816935962
30
0
11
2923.62113758076
21
4314.31481935962
31
0
0
LINE
8
Základní_vrstva
62
190
10
2923.62113758076
20
4314.31481935962
30
0
11
2923.79873758076
21
4314.26486935962
31
0
0
LINE
8
Základní_vrstva
62
190
10
2923.79873758076
20
4314.26486935962
30
0
11
2923.99298758076
21
4314.24821935962
31
0
0
LINE
8
Základní_vrstva
62
190
10
2923.99298758076
20
4314.24821935962
30
0
11
2924.14838758076
21
4314.35366935962
31
0
0
LINE
8
Základní_vrstva
62
190
10
2924.14838758076
20
4314.35366935962
30
0
11
2924.27603758076
21
4314.48686935962
31
0
0
LINE
8
Základní_vrstva
62
190
10
2924.27603758076
20
4314.48686935962
30
0
11
2924.44808758076
21
4314.56456935962
31
0
0
LINE
8
Základní_vrstva
62
190
10
2924.44808758076
20
4314.56456935962
30
0
11
2924.60903758076
21
4314.68111935962
31
0
0
LINE
8
Základní_vrstva
62
190
10
2924.60903758076
20
4314.68111935962
30
0
11
2924.66453758076
21
4314.86981935962
31
0
0
LINE
8
Základní_vrstva
62
190
10
2924.66453758076
20
4314.86981935962
30
0
11
2924.67563758076
21
4315.05851935962
31
0
0
LINE
8
Základní_vrstva
62
190
10
2924.67563758076
20
4315.05851935962
30
0
11
2924.75333758076
21
4315.23611935962
31
0
0
LINE
8
Základní_vrstva
62
190
10
2924.75333758076
20
4315.23611935962
30
0
11
2924.80328758076
21
4315.39706935962
31
0
0
CIRCLE
8
Základní_vrstva
62
190
10
2923.70993758076
20
4315.30826935962
30
0
40
0.0925000000002001
0
LINE
8
Základní_vrstva
62
190
10
2925.88914383076
20
4313.31347560962
30
0
11
2925.82254383076
21
4313.46887560962
31
0
0
LINE
8
Základní_vrstva
62
190
10
2925.82254383076
20
4313.46887560962
30
0
11
2925.71154383076
21
4313.64092560962
31
0
0
LINE
8
Základní_vrstva
62
190
10
2925.71154383076
20
4313.64092560962
30
0
11
2925.66159383076
21
4313.82962560962
31
0
0
LINE
8
Základní_vrstva
62
190
10
2925.66159383076
20
4313.82962560962
30
0
11
2925.58389383076
21
4313.99612560962
31
0
0
LINE
8
Základní_vrstva
62
190
10
2925.58389383076
20
4313.99612560962
30
0
11
2925.40629383076
21
4314.08492560962
31
0
0
LINE
8
Základní_vrstva
62
190
10
2925.40629383076
20
4314.08492560962
30
0
11
2925.22314383076
21
4314.13487560962
31
0
0
LINE
8
Základní_vrstva
62
190
10
2925.22314383076
20
4314.13487560962
30
0
11
2925.07329383076
21
4314.24032560962
31
0
0
LINE
8
Základní_vrstva
62
190
10
2925.07329383076
20
4314.24032560962
30
0
11
2924.90124383076
21
4314.31802560962
31
0
0
LINE
8
Základní_vrstva
62
190
10
2924.90124383076
20
4314.31802560962
30
0
11
2924.71809383076
21
4314.26807560962
31
0
0
LINE
8
Základní_vrstva
62
190
10
2924.71809383076
20
4314.26807560962
30
0
11
2924.55714383076
21
4314.19037560962
31
0
0
LINE
8
Základní_vrstva
62
190
10
2924.55714383076
20
4314.19037560962
30
0
11
2924.36844383076
21
4314.17372560962
31
0
0
LINE
8
Základní_vrstva
62
190
10
2924.36844383076
20
4314.17372560962
30
0
11
2924.17974383076
21
4314.12932560962
31
0
0
LINE
8
Základní_vrstva
62
190
10
2924.17974383076
20
4314.12932560962
30
0
11
2924.06319383076
21
4313.96837560962
31
0
0
LINE
8
Základní_vrstva
62
190
10
2924.06319383076
20
4313.96837560962
30
0
11
2923.97994383076
21
4313.79632560962
31
0
0
LINE
8
Základní_vrstva
62
190
10
2923.97994383076
20
4313.79632560962
30
0
11
2923.85229383076
21
4313.66867560962
31
0
0
LINE
8
Základní_vrstva
62
190
10
2923.85229383076
20
4313.66867560962
30
0
11
2923.74129383076
21
4313.49662560962
31
0
0
LINE
8
Základní_vrstva
62
190
10
2923.74129383076
20
4313.49662560962
30
0
11
2923.75794383076
21
4313.30792560962
31
0
0
LINE
8
Základní_vrstva
62
190
10
2923.75794383076
20
4313.30792560962
30
0
11
2923.80789383076
21
4313.13587560962
31
0
0
LINE
8
Základní_vrstva
62
190
10
2923.80789383076
20
4313.13587560962
30
0
11
2923.78569383076
21
4312.95272560962
31
0
0
LINE
8
Základní_vrstva
62
190
10
2923.78569383076
20
4312.95272560962
30
0
11
2923.80234383076
21
4312.76402560962
31
0
0
LINE
8
Základní_vrstva
62
190
10
2923.80234383076
20
4312.76402560962
30
0
11
2923.94109383076
21
4312.61972560962
31
0
0
LINE
8
Základní_vrstva
62
190
10
2923.94109383076
20
4312.61972560962
30
0
11
2924.10204383076
21
4312.50872560962
31
0
0
LINE
8
Základní_vrstva
62
190
10
2924.10204383076
20
4312.50872560962
30
0
11
2924.20749383076
21
4312.35887560962
31
0
0
LINE
8
Základní_vrstva
62
190
10
2924.20749383076
20
4312.35887560962
30
0
11
2924.32959383076
21
4312.23122560962
31
0
0
LINE
8
Základní_vrstva
62
190
10
2924.32959383076
20
4312.23122560962
30
0
11
2924.51829383076
21
4312.21457560962
31
0
0
LINE
8
Základní_vrstva
62
190
10
2924.51829383076
20
4312.21457560962
30
0
11
2924.71254383076
21
4312.23122560962
31
0
0
LINE
8
Základní_vrstva
62
190
10
2924.71254383076
20
4312.23122560962
30
0
11
2924.89014383076
21
4312.18127560962
31
0
0
LINE
8
Základní_vrstva
62
190
10
2924.89014383076
20
4312.18127560962
30
0
11
2925.08439383076
21
4312.16462560962
31
0
0
LINE
8
Základní_vrstva
62
190
10
2925.08439383076
20
4312.16462560962
30
0
11
2925.23979383076
21
4312.27007560962
31
0
0
LINE
8
Základní_vrstva
62
190
10
2925.23979383076
20
4312.27007560962
30
0
11
2925.36744383076
21
4312.40327560962
31
0
0
LINE
8
Základní_vrstva
62
190
10
2925.36744383076
20
4312.40327560962
30
0
11
2925.53949383076
21
4312.48097560962
31
0
0
LINE
8
Základní_vrstva
62
190
10
2925.53949383076
20
4312.48097560962
30
0
11
2925.70044383076
21
4312.59752560962
31
0
0
LINE
8
Základní_vrstva
62
190
10
2925.70044383076
20
4312.59752560962
30
0
11
2925.75594383076
21
4312.78622560962
31
0
0
LINE
8
Základní_vrstva
62
190
10
2925.75594383076
20
4312.78622560962
30
0
11
2925.76704383076
21
4312.97492560962
31
0
0
LINE
8
Základní_vrstva
62
190
10
2925.76704383076
20
4312.97492560962
30
0
11
2925.84474383076
21
4313.15252560962
31
0
0
LINE
8
Základní_vrstva
62
190
10
2925.84474383076
20
4313.15252560962
30
0
11
2925.89469383076
21
4313.31347560962
31
0
0
CIRCLE
8
Základní_vrstva
62
190
10
2924.80134383076
20
4313.22467560962
30
0
40
0.0925000000002001
0
LINE
8
Základní_vrstva
62
190
10
2940.07742508076
20
4297.63691310962
30
0
11
2940.01082508076
21
4297.79231310962
31
0
0
LINE
8
Základní_vrstva
62
190
10
2940.01082508076
20
4297.79231310962
30
0
11
2939.89982508076
21
4297.96436310962
31
0
0
LINE
8
Základní_vrstva
62
190
10
2939.89982508076
20
4297.96436310962
30
0
11
2939.84987508076
21
4298.15306310962
31
0
0
LINE
8
Základní_vrstva
62
190
10
2939.84987508076
20
4298.15306310962
30
0
11
2939.77217508076
21
4298.31956310962
31
0
0
LINE
8
Základní_vrstva
62
190
10
2939.77217508076
20
4298.31956310962
30
0
11
2939.59457508076
21
4298.40836310962
31
0
0
LINE
8
Základní_vrstva
62
190
10
2939.59457508076
20
4298.40836310962
30
0
11
2939.41142508076
21
4298.45831310962
31
0
0
LINE
8
Základní_vrstva
62
190
10
2939.41142508076
20
4298.45831310962
30
0
11
2939.26157508076
21
4298.56376310962
31
0
0
LINE
8
Základní_vrstva
62
190
10
2939.26157508076
20
4298.56376310962
30
0
11
2939.08952508076
21
4298.64146310962
31
0
0
LINE
8
Základní_vrstva
62
190
10
2939.08952508076
20
4298.64146310962
30
0
11
2938.90637508076
21
4298.59151310962
31
0
0
LINE
8
Základní_vrstva
62
190
10
2938.90637508076
20
4298.59151310962
30
0
11
2938.74542508076
21
4298.51381310962
31
0
0
LINE
8
Základní_vrstva
62
190
10
2938.74542508076
20
4298.51381310962
30
0
11
2938.55672508076
21
4298.49716310962
31
0
0
LINE
8
Základní_vrstva
62
190
10
2938.55672508076
20
4298.49716310962
30
0
11
2938.36802508076
21
4298.45276310962
31
0
0
LINE
8
Základní_vrstva
62
190
10
2938.36802508076
20
4298.45276310962
30
0
11
2938.25147508076
21
4298.29181310962
31
0
0
LINE
8
Základní_vrstva
62
190
10
2938.25147508076
20
4298.29181310962
30
0
11
2938.16822508076
21
4298.11976310962
31
0
0
LINE
8
Základní_vrstva
62
190
10
2938.16822508076
20
4298.11976310962
30
0
11
2938.04057508076
21
4297.99211310962
31
0
0
LINE
8
Základní_vrstva
62
190
10
2938.04057508076
20
4297.99211310962
30
0
11
2937.92957508076
21
4297.82006310962
31
0
0
LINE
8
Základní_vrstva
62
190
10
2937.92957508076
20
4297.82006310962
30
0
11
2937.94622508076
21
4297.63136310962
31
0
0
LINE
8
Základní_vrstva
62
190
10
2937.94622508076
20
4297.63136310962
30
0
11
2937.99617508076
21
4297.45931310962
31
0
0
LINE
8
Základní_vrstva
62
190
10
2937.99617508076
20
4297.45931310962
30
0
11
2937.97397508076
21
4297.27616310962
31
0
0
LINE
8
Základní_vrstva
62
190
10
2937.97397508076
20
4297.27616310962
30
0
11
2937.99062508076
21
4297.08746310962
31
0
0
LINE
8
Základní_vrstva
62
190
10
2937.99062508076
20
4297.08746310962
30
0
11
2938.12937508076
21
4296.94316310962
31
0
0
LINE
8
Základní_vrstva
62
190
10
2938.12937508076
20
4296.94316310962
30
0
11
2938.29032508076
21
4296.83216310962
31
0
0
LINE
8
Základní_vrstva
62
190
10
2938.29032508076
20
4296.83216310962
30
0
11
2938.39577508076
21
4296.68231310962
31
0
0
LINE
8
Základní_vrstva
62
190
10
2938.39577508076
20
4296.68231310962
30
0
11
2938.51787508076
21
4296.55466310962
31
0
0
LINE
8
Základní_vrstva
62
190
10
2938.51787508076
20
4296.55466310962
30
0
11
2938.70657508076
21
4296.53801310962
31
0
0
LINE
8
Základní_vrstva
62
190
10
2938.70657508076
20
4296.53801310962
30
0
11
2938.90082508076
21
4296.55466310962
31
0
0
LINE
8
Základní_vrstva
62
190
10
2938.90082508076
20
4296.55466310962
30
0
11
2939.07842508076
21
4296.50471310962
31
0
0
LINE
8
Základní_vrstva
62
190
10
2939.07842508076
20
4296.50471310962
30
0
11
2939.27267508076
21
4296.48806310962
31
0
0
LINE
8
Základní_vrstva
62
190
10
2939.27267508076
20
4296.48806310962
30
0
11
2939.42807508076
21
4296.59351310962
31
0
0
LINE
8
Základní_vrstva
62
190
10
2939.42807508076
20
4296.59351310962
30
0
11
2939.55572508076
21
4296.72671310962
31
0
0
LINE
8
Základní_vrstva
62
190
10
2939.55572508076
20
4296.72671310962
30
0
11
2939.72777508076
21
4296.80441310962
31
0
0
LINE
8
Základní_vrstva
62
190
10
2939.72777508076
20
4296.80441310962
30
0
11
2939.88872508076
21
4296.92096310962
31
0
0
LINE
8
Základní_vrstva
62
190
10
2939.88872508076
20
4296.92096310962
30
0
11
2939.94422508076
21
4297.10966310962
31
0
0
LINE
8
Základní_vrstva
62
190
10
2939.94422508076
20
4297.10966310962
30
0
11
2939.95532508076
21
4297.29836310962
31
0
0
LINE
8
Základní_vrstva
62
190
10
2939.95532508076
20
4297.29836310962
30
0
11
2940.03302508076
21
4297.47596310962
31
0
0
LINE
8
Základní_vrstva
62
190
10
2940.03302508076
20
4297.47596310962
30
0
11
2940.08297508076
21
4297.63691310962
31
0
0
CIRCLE
8
Základní_vrstva
62
190
10
2938.98962508076
20
4297.54811310962
30
0
40
0.0925000000002001
0
LINE
8
Základní_vrstva
62
190
10
2938.39070633076
20
4296.64472560962
30
0
11
2938.32410633076
21
4296.80012560962
31
0
0
LINE
8
Základní_vrstva
62
190
10
2938.32410633076
20
4296.80012560962
30
0
11
2938.21310633076
21
4296.97217560962
31
0
0
LINE
8
Základní_vrstva
62
190
10
2938.21310633076
20
4296.97217560962
30
0
11
2938.16315633076
21
4297.16087560962
31
0
0
LINE
8
Základní_vrstva
62
190
10
2938.16315633076
20
4297.16087560962
30
0
11
2938.08545633076
21
4297.32737560962
31
0
0
LINE
8
Základní_vrstva
62
190
10
2938.08545633076
20
4297.32737560962
30
0
11
2937.90785633076
21
4297.41617560962
31
0
0
LINE
8
Základní_vrstva
62
190
10
2937.90785633076
20
4297.41617560962
30
0
11
2937.72470633076
21
4297.46612560962
31
0
0
LINE
8
Základní_vrstva
62
190
10
2937.72470633076
20
4297.46612560962
30
0
11
2937.57485633076
21
4297.57157560962
31
0
0
LINE
8
Základní_vrstva
62
190
10
2937.57485633076
20
4297.57157560962
30
0
11
2937.40280633076
21
4297.64927560962
31
0
0
LINE
8
Základní_vrstva
62
190
10
2937.40280633076
20
4297.64927560962
30
0
11
2937.21965633076
21
4297.59932560962
31
0
0
LINE
8
Základní_vrstva
62
190
10
2937.21965633076
20
4297.59932560962
30
0
11
2937.05870633076
21
4297.52162560962
31
0
0
LINE
8
Základní_vrstva
62
190
10
2937.05870633076
20
4297.52162560962
30
0
11
2936.87000633076
21
4297.50497560962
31
0
0
LINE
8
Základní_vrstva
62
190
10
2936.87000633076
20
4297.50497560962
30
0
11
2936.68130633076
21
4297.46057560962
31
0
0
LINE
8
Základní_vrstva
62
190
10
2936.68130633076
20
4297.46057560962
30
0
11
2936.56475633076
21
4297.29962560962
31
0
0
LINE
8
Základní_vrstva
62
190
10
2936.56475633076
20
4297.29962560962
30
0
11
2936.48150633076
21
4297.12757560962
31
0
0
LINE
8
Základní_vrstva
62
190
10
2936.48150633076
20
4297.12757560962
30
0
11
2936.35385633076
21
4296.99992560962
31
0
0
LINE
8
Základní_vrstva
62
190
10
2936.35385633076
20
4296.99992560962
30
0
11
2936.24285633076
21
4296.82787560962
31
0
0
LINE
8
Základní_vrstva
62
190
10
2936.24285633076
20
4296.82787560962
30
0
11
2936.25950633076
21
4296.63917560962
31
0
0
LINE
8
Základní_vrstva
62
190
10
2936.25950633076
20
4296.63917560962
30
0
11
2936.30945633076
21
4296.46712560962
31
0
0
LINE
8
Základní_vrstva
62
190
10
2936.30945633076
20
4296.46712560962
30
0
11
2936.28725633076
21
4296.28397560962
31
0
0
LINE
8
Základní_vrstva
62
190
10
2936.28725633076
20
4296.28397560962
30
0
11
2936.30390633076
21
4296.09527560962
31
0
0
LINE
8
Základní_vrstva
62
190
10
2936.30390633076
20
4296.09527560962
30
0
11
2936.44265633076
21
4295.95097560962
31
0
0
LINE
8
Základní_vrstva
62
190
10
2936.44265633076
20
4295.95097560962
30
0
11
2936.60360633076
21
4295.83997560962
31
0
0
LINE
8
Základní_vrstva
62
190
10
2936.60360633076
20
4295.83997560962
30
0
11
2936.70905633076
21
4295.69012560962
31
0
0
LINE
8
Základní_vrstva
62
190
10
2936.70905633076
20
4295.69012560962
30
0
11
2936.83115633076
21
4295.56247560962
31
0
0
LINE
8
Základní_vrstva
62
190
10
2936.83115633076
20
4295.56247560962
30
0
11
2937.01985633076
21
4295.54582560962
31
0
0
LINE
8
Základní_vrstva
62
190
10
2937.01985633076
20
4295.54582560962
30
0
11
2937.21410633076
21
4295.56247560962
31
0
0
LINE
8
Základní_vrstva
62
190
10
2937.21410633076
20
4295.56247560962
30
0
11
2937.39170633076
21
4295.51252560962
31
0
0
LINE
8
Základní_vrstva
62
190
10
2937.39170633076
20
4295.51252560962
30
0
11
2937.58595633076
21
4295.49587560962
31
0
0
LINE
8
Základní_vrstva
62
190
10
2937.58595633076
20
4295.49587560962
30
0
11
2937.74135633076
21
4295.60132560962
31
0
0
LINE
8
Základní_vrstva
62
190
10
2937.74135633076
20
4295.60132560962
30
0
11
2937.86900633076
21
4295.73452560962
31
0
0
LINE
8
Základní_vrstva
62
190
10
2937.86900633076
20
4295.73452560962
30
0
11
2938.04105633076
21
4295.81222560962
31
0
0
LINE
8
Základní_vrstva
62
190
10
2938.04105633076
20
4295.81222560962
30
0
11
2938.20200633076
21
4295.92877560962
31
0
0
LINE
8
Základní_vrstva
62
190
10
2938.20200633076
20
4295.92877560962
30
0
11
2938.25750633076
21
4296.11747560962
31
0
0
LINE
8
Základní_vrstva
62
190
10
2938.25750633076
20
4296.11747560962
30
0
11
2938.26860633076
21
4296.30617560962
31
0
0
LINE
8
Základní_vrstva
62
190
10
2938.26860633076
20
4296.30617560962
30
0
11
2938.34630633076
21
4296.48377560962
31
0
0
LINE
8
Základní_vrstva
62
190
10
2938.34630633076
20
4296.48377560962
30
0
11
2938.39625633076
21
4296.64472560962
31
0
0
CIRCLE
8
Základní_vrstva
62
190
10
2937.30290633076
20
4296.55592560962
30
0
40
0.0925000000002001
0
LINE
8
Základní_vrstva
62
190
10
2936.60476883076
20
4296.04941310962
30
0
11
2936.53816883076
21
4296.20481310962
31
0
0
LINE
8
Základní_vrstva
62
190
10
2936.53816883076
20
4296.20481310962
30
0
11
2936.42716883076
21
4296.37686310962
31
0
0
LINE
8
Základní_vrstva
62
190
10
2936.42716883076
20
4296.37686310962
30
0
11
2936.37721883076
21
4296.56556310962
31
0
0
LINE
8
Základní_vrstva
62
190
10
2936.37721883076
20
4296.56556310962
30
0
11
2936.29951883076
21
4296.73206310962
31
0
0
LINE
8
Základní_vrstva
62
190
10
2936.29951883076
20
4296.73206310962
30
0
11
2936.12191883076
21
4296.82086310962
31
0
0
LINE
8
Základní_vrstva
62
190
10
2936.12191883076
20
4296.82086310962
30
0
11
2935.93876883076
21
4296.87081310962
31
0
0
LINE
8
Základní_vrstva
62
190
10
2935.93876883076
20
4296.87081310962
30
0
11
2935.78891883076
21
4296.97626310962
31
0
0
LINE
8
Základní_vrstva
62
190
10
2935.78891883076
20
4296.97626310962
30
0
11
2935.61686883076
21
4297.05396310962
31
0
0
LINE
8
Základní_vrstva
62
190
10
2935.61686883076
20
4297.05396310962
30
0
11
2935.43371883076
21
4297.00401310962
31
0
0
LINE
8
Základní_vrstva
62
190
10
2935.43371883076
20
4297.00401310962
30
0
11
2935.27276883076
21
4296.92631310962
31
0
0
LINE
8
Základní_vrstva
62
190
10
2935.27276883076
20
4296.92631310962
30
0
11
2935.08406883076
21
4296.90966310962
31
0
0
LINE
8
Základní_vrstva
62
190
10
2935.08406883076
20
4296.90966310962
30
0
11
2934.89536883076
21
4296.86526310962
31
0
0
LINE
8
Základní_vrstva
62
190
10
2934.89536883076
20
4296.86526310962
30
0
11
2934.77881883076
21
4296.70431310962
31
0
0
LINE
8
Základní_vrstva
62
190
10
2934.77881883076
20
4296.70431310962
30
0
11
2934.69556883076
21
4296.53226310962
31
0
0
LINE
8
Základní_vrstva
62
190
10
2934.69556883076
20
4296.53226310962
30
0
11
2934.56791883076
21
4296.40461310962
31
0
0
LINE
8
Základní_vrstva
62
190
10
2934.56791883076
20
4296.40461310962
30
0
11
2934.45691883076
21
4296.23256310962
31
0
0
LINE
8
Základní_vrstva
62
190
10
2934.45691883076
20
4296.23256310962
30
0
11
2934.47356883076
21
4296.04386310962
31
0
0
LINE
8
Základní_vrstva
62
190
10
2934.47356883076
20
4296.04386310962
30
0
11
2934.52351883076
21
4295.87181310962
31
0
0
LINE
8
Základní_vrstva
62
190
10
2934.52351883076
20
4295.87181310962
30
0
11
2934.50131883076
21
4295.68866310962
31
0
0
LINE
8
Základní_vrstva
62
190
10
2934.50131883076
20
4295.68866310962
30
0
11
2934.51796883076
21
4295.49996310962
31
0
0
LINE
8
Základní_vrstva
62
190
10
2934.51796883076
20
4295.49996310962
30
0
11
2934.65671883076
21
4295.35566310962
31
0
0
LINE
8
Základní_vrstva
62
190
10
2934.65671883076
20
4295.35566310962
30
0
11
2934.81766883076
21
4295.24466310962
31
0
0
LINE
8
Základní_vrstva
62
190
10
2934.81766883076
20
4295.24466310962
30
0
11
2934.92311883076
21
4295.09481310962
31
0
0
LINE
8
Základní_vrstva
62
190
10
2934.92311883076
20
4295.09481310962
30
0
11
2935.04521883076
21
4294.96716310962
31
0
0
LINE
8
Základní_vrstva
62
190
10
2935.04521883076
20
4294.96716310962
30
0
11
2935.23391883076
21
4294.95051310962
31
0
0
LINE
8
Základní_vrstva
62
190
10
2935.23391883076
20
4294.95051310962
30
0
11
2935.42816883076
21
4294.96716310962
31
0
0
LINE
8
Základní_vrstva
62
190
10
2935.42816883076
20
4294.96716310962
30
0
11
2935.60576883076
21
4294.91721310962
31
0
0
LINE
8
Základní_vrstva
62
190
10
2935.60576883076
20
4294.91721310962
30
0
11
2935.80001883076
21
4294.90056310962
31
0
0
LINE
8
Základní_vrstva
62
190
10
2935.80001883076
20
4294.90056310962
30
0
11
2935.95541883076
21
4295.00601310962
31
0
0
LINE
8
Základní_vrstva
62
190
10
2935.95541883076
20
4295.00601310962
30
0
11
2936.08306883076
21
4295.13921310962
31
0
0
LINE
8
Základní_vrstva
62
190
10
2936.08306883076
20
4295.13921310962
30
0
11
2936.25511883076
21
4295.21691310962
31
0
0
LINE
8
Základní_vrstva
62
190
10
2936.25511883076
20
4295.21691310962
30
0
11
2936.41606883076
21
4295.33346310962
31
0
0
LINE
8
Základní_vrstva
62
190
10
2936.41606883076
20
4295.33346310962
30
0
11
2936.47156883076
21
4295.52216310962
31
0
0
LINE
8
Základní_vrstva
62
190
10
2936.47156883076
20
4295.52216310962
30
0
11
2936.48266883076
21
4295.71086310962
31
0
0
LINE
8
Základní_vrstva
62
190
10
2936.48266883076
20
4295.71086310962
30
0
11
2936.56036883076
21
4295.88846310962
31
0
0
LINE
8
Základní_vrstva
62
190
10
2936.56036883076
20
4295.88846310962
30
0
11
2936.61031883076
21
4296.04941310962
31
0
0
CIRCLE
8
Základní_vrstva
62
190
10
2935.51696883076
20
4295.96061310962
30
0
40
0.0925000000002001
0
LINE
8
Základní_vrstva
62
190
10
2935.21570633076
20
4297.43847560962
30
0
11
2935.14910633076
21
4297.59387560962
31
0
0
LINE
8
Základní_vrstva
62
190
10
2935.14910633076
20
4297.59387560962
30
0
11
2935.03810633076
21
4297.76592560962
31
0
0
LINE
8
Základní_vrstva
62
190
10
2935.03810633076
20
4297.76592560962
30
0
11
2934.98815633076
21
4297.95462560962
31
0
0
LINE
8
Základní_vrstva
62
190
10
2934.98815633076
20
4297.95462560962
30
0
11
2934.91045633076
21
4298.12112560962
31
0
0
LINE
8
Základní_vrstva
62
190
10
2934.91045633076
20
4298.12112560962
30
0
11
2934.73285633076
21
4298.20992560962
31
0
0
LINE
8
Základní_vrstva
62
190
10
2934.73285633076
20
4298.20992560962
30
0
11
2934.54970633076
21
4298.25987560962
31
0
0
LINE
8
Základní_vrstva
62
190
10
2934.54970633076
20
4298.25987560962
30
0
11
2934.39985633076
21
4298.36532560962
31
0
0
LINE
8
Základní_vrstva
62
190
10
2934.39985633076
20
4298.36532560962
30
0
11
2934.22780633076
21
4298.44302560962
31
0
0
LINE
8
Základní_vrstva
62
190
10
2934.22780633076
20
4298.44302560962
30
0
11
2934.04465633076
21
4298.39307560962
31
0
0
LINE
8
Základní_vrstva
62
190
10
2934.04465633076
20
4298.39307560962
30
0
11
2933.88370633076
21
4298.31537560962
31
0
0
LINE
8
Základní_vrstva
62
190
10
2933.88370633076
20
4298.31537560962
30
0
11
2933.69500633076
21
4298.29872560962
31
0
0
LINE
8
Základní_vrstva
62
190
10
2933.69500633076
20
4298.29872560962
30
0
11
2933.50630633076
21
4298.25432560962
31
0
0
LINE
8
Základní_vrstva
62
190
10
2933.50630633076
20
4298.25432560962
30
0
11
2933.38975633076
21
4298.09337560962
31
0
0
LINE
8
Základní_vrstva
62
190
10
2933.38975633076
20
4298.09337560962
30
0
11
2933.30650633076
21
4297.92132560962
31
0
0
LINE
8
Základní_vrstva
62
190
10
2933.30650633076
20
4297.92132560962
30
0
11
2933.17885633076
21
4297.79367560962
31
0
0
LINE
8
Základní_vrstva
62
190
10
2933.17885633076
20
4297.79367560962
30
0
11
2933.06785633076
21
4297.62162560962
31
0
0
LINE
8
Základní_vrstva
62
190
10
2933.06785633076
20
4297.62162560962
30
0
11
2933.08450633076
21
4297.43292560962
31
0
0
LINE
8
Základní_vrstva
62
190
10
2933.08450633076
20
4297.43292560962
30
0
11
2933.13445633076
21
4297.26087560962
31
0
0
LINE
8
Základní_vrstva
62
190
10
2933.13445633076
20
4297.26087560962
30
0
11
2933.11225633076
21
4297.07772560962
31
0
0
LINE
8
Základní_vrstva
62
190
10
2933.11225633076
20
4297.07772560962
30
0
11
2933.12890633076
21
4296.88902560962
31
0
0
LINE
8
Základní_vrstva
62
190
10
2933.12890633076
20
4296.88902560962
30
0
11
2933.26765633076
21
4296.74472560962
31
0
0
LINE
8
Základní_vrstva
62
190
10
2933.26765633076
20
4296.74472560962
30
0
11
2933.42860633076
21
4296.63372560962
31
0
0
LINE
8
Základní_vrstva
62
190
10
2933.42860633076
20
4296.63372560962
30
0
11
2933.53405633076
21
4296.48387560962
31
0
0
LINE
8
Základní_vrstva
62
190
10
2933.53405633076
20
4296.48387560962
30
0
11
2933.65615633076
21
4296.35622560962
31
0
0
LINE
8
Základní_vrstva
62
190
10
2933.65615633076
20
4296.35622560962
30
0
11
2933.84485633076
21
4296.33957560962
31
0
0
LINE
8
Základní_vrstva
62
190
10
2933.84485633076
20
4296.33957560962
30
0
11
2934.03910633076
21
4296.35622560962
31
0
0
LINE
8
Základní_vrstva
62
190
10
2934.03910633076
20
4296.35622560962
30
0
11
2934.21670633076
21
4296.30627560962
31
0
0
LINE
8
Základní_vrstva
62
190
10
2934.21670633076
20
4296.30627560962
30
0
11
2934.41095633076
21
4296.28962560962
31
0
0
LINE
8
Základní_vrstva
62
190
10
2934.41095633076
20
4296.28962560962
30
0
11
2934.56635633076
21
4296.39507560962
31
0
0
LINE
8
Základní_vrstva
62
190
10
2934.56635633076
20
4296.39507560962
30
0
11
2934.69400633076
21
4296.52827560962
31
0
0
LINE
8
Základní_vrstva
62
190
10
2934.69400633076
20
4296.52827560962
30
0
11
2934.86605633076
21
4296.60597560962
31
0
0
LINE
8
Základní_vrstva
62
190
10
2934.86605633076
20
4296.60597560962
30
0
11
2935.02700633076
21
4296.72252560962
31
0
0
LINE
8
Základní_vrstva
62
190
10
2935.02700633076
20
4296.72252560962
30
0
11
2935.08250633076
21
4296.91122560962
31
0
0
LINE
8
Základní_vrstva
62
190
10
2935.08250633076
20
4296.91122560962
30
0
11
2935.09360633076
21
4297.09992560962
31
0
0
LINE
8
Základní_vrstva
62
190
10
2935.09360633076
20
4297.09992560962
30
0
11
2935.17130633076
21
4297.27752560962
31
0
0
LINE
8
Základní_vrstva
62
190
10
2935.17130633076
20
4297.27752560962
30
0
11
2935.22125633076
21
4297.43847560962
31
0
0
CIRCLE
8
Základní_vrstva
62
190
10
2934.12790633076
20
4297.34967560962
30
0
40
0.0925000000002001
0
LINE
8
Základní_vrstva
62
190
10
2937.10086258076
20
4298.13300685962
30
0
11
2937.03426258076
21
4298.28840685962
31
0
0
LINE
8
Základní_vrstva
62
190
10
2937.03426258076
20
4298.28840685962
30
0
11
2936.92326258076
21
4298.46045685962
31
0
0
LINE
8
Základní_vrstva
62
190
10
2936.92326258076
20
4298.46045685962
30
0
11
2936.87331258076
21
4298.64915685962
31
0
0
LINE
8
Základní_vrstva
62
190
10
2936.87331258076
20
4298.64915685962
30
0
11
2936.79561258076
21
4298.81565685962
31
0
0
LINE
8
Základní_vrstva
62
190
10
2936.79561258076
20
4298.81565685962
30
0
11
2936.61801258076
21
4298.90445685962
31
0
0
LINE
8
Základní_vrstva
62
190
10
2936.61801258076
20
4298.90445685962
30
0
11
2936.43486258076
21
4298.95440685962
31
0
0
LINE
8
Základní_vrstva
62
190
10
2936.43486258076
20
4298.95440685962
30
0
11
2936.28501258076
21
4299.05985685962
31
0
0
LINE
8
Základní_vrstva
62
190
10
2936.28501258076
20
4299.05985685962
30
0
11
2936.11296258076
21
4299.13755685962
31
0
0
LINE
8
Základní_vrstva
62
190
10
2936.11296258076
20
4299.13755685962
30
0
11
2935.92981258076
21
4299.08760685962
31
0
0
LINE
8
Základní_vrstva
62
190
10
2935.92981258076
20
4299.08760685962
30
0
11
2935.76886258076
21
4299.00990685962
31
0
0
LINE
8
Základní_vrstva
62
190
10
2935.76886258076
20
4299.00990685962
30
0
11
2935.58016258076
21
4298.99325685962
31
0
0
LINE
8
Základní_vrstva
62
190
10
2935.58016258076
20
4298.99325685962
30
0
11
2935.39146258076
21
4298.94885685962
31
0
0
LINE
8
Základní_vrstva
62
190
10
2935.39146258076
20
4298.94885685962
30
0
11
2935.27491258076
21
4298.78790685962
31
0
0
LINE
8
Základní_vrstva
62
190
10
2935.27491258076
20
4298.78790685962
30
0
11
2935.19166258076
21
4298.61585685962
31
0
0
LINE
8
Základní_vrstva
62
190
10
2935.19166258076
20
4298.61585685962
30
0
11
2935.06401258076
21
4298.48820685962
31
0
0
LINE
8
Základní_vrstva
62
190
10
2935.06401258076
20
4298.48820685962
30
0
11
2934.95301258076
21
4298.31615685962
31
0
0
LINE
8
Základní_vrstva
62
190
10
2934.95301258076
20
4298.31615685962
30
0
11
2934.96966258076
21
4298.12745685962
31
0
0
LINE
8
Základní_vrstva
62
190
10
2934.96966258076
20
4298.12745685962
30
0
11
2935.01961258076
21
4297.95540685962
31
0
0
LINE
8
Základní_vrstva
62
190
10
2935.01961258076
20
4297.95540685962
30
0
11
2934.99741258076
21
4297.77225685962
31
0
0
LINE
8
Základní_vrstva
62
190
10
2934.99741258076
20
4297.77225685962
30
0
11
2935.01406258076
21
4297.58355685962
31
0
0
LINE
8
Základní_vrstva
62
190
10
2935.01406258076
20
4297.58355685962
30
0
11
2935.15281258076
21
4297.43925685962
31
0
0
LINE
8
Základní_vrstva
62
190
10
2935.15281258076
20
4297.43925685962
30
0
11
2935.31376258076
21
4297.32825685962
31
0
0
LINE
8
Základní_vrstva
62
190
10
2935.31376258076
20
4297.32825685962
30
0
11
2935.41921258076
21
4297.17840685962
31
0
0
LINE
8
Základní_vrstva
62
190
10
2935.41921258076
20
4297.17840685962
30
0
11
2935.54131258076
21
4297.05075685962
31
0
0
LINE
8
Základní_vrstva
62
190
10
2935.54131258076
20
4297.05075685962
30
0
11
2935.73001258076
21
4297.03410685962
31
0
0
LINE
8
Základní_vrstva
62
190
10
2935.73001258076
20
4297.03410685962
30
0
11
2935.92426258076
21
4297.05075685962
31
0
0
LINE
8
Základní_vrstva
62
190
10
2935.92426258076
20
4297.05075685962
30
0
11
2936.10186258076
21
4297.00080685962
31
0
0
LINE
8
Základní_vrstva
62
190
10
2936.10186258076
20
4297.00080685962
30
0
11
2936.29611258076
21
4296.98415685962
31
0
0
LINE
8
Základní_vrstva
62
190
10
2936.29611258076
20
4296.98415685962
30
0
11
2936.45151258076
21
4297.08960685962
31
0
0
LINE
8
Základní_vrstva
62
190
10
2936.45151258076
20
4297.08960685962
30
0
11
2936.57916258076
21
4297.22280685962
31
0
0
LINE
8
Základní_vrstva
62
190
10
2936.57916258076
20
4297.22280685962
30
0
11
2936.75121258076
21
4297.30050685962
31
0
0
LINE
8
Základní_vrstva
62
190
10
2936.75121258076
20
4297.30050685962
30
0
11
2936.91216258076
21
4297.41705685962
31
0
0
LINE
8
Základní_vrstva
62
190
10
2936.91216258076
20
4297.41705685962
30
0
11
2936.96766258076
21
4297.60575685962
31
0
0
LINE
8
Základní_vrstva
62
190
10
2936.96766258076
20
4297.60575685962
30
0
11
2936.97876258076
21
4297.79445685962
31
0
0
LINE
8
Základní_vrstva
62
190
10
2936.97876258076
20
4297.79445685962
30
0
11
2937.05646258076
21
4297.97205685962
31
0
0
LINE
8
Základní_vrstva
62
190
10
2937.05646258076
20
4297.97205685962
30
0
11
2937.10641258076
21
4298.13300685962
31
0
0
CIRCLE
8
Základní_vrstva
62
190
10
2936.01306258076
20
4298.04420685962
30
0
40
0.0925000000002001
0
LINE
8
Základní_vrstva
62
190
10
2938.88680008076
20
4298.92675685962
30
0
11
2938.82020008076
21
4299.08215685962
31
0
0
LINE
8
Základní_vrstva
62
190
10
2938.82020008076
20
4299.08215685962
30
0
11
2938.70920008076
21
4299.25420685962
31
0
0
LINE
8
Základní_vrstva
62
190
10
2938.70920008076
20
4299.25420685962
30
0
11
2938.65925008076
21
4299.44290685962
31
0
0
LINE
8
Základní_vrstva
62
190
10
2938.65925008076
20
4299.44290685962
30
0
11
2938.58155008076
21
4299.60940685962
31
0
0
LINE
8
Základní_vrstva
62
190
10
2938.58155008076
20
4299.60940685962
30
0
11
2938.40395008076
21
4299.69820685962
31
0
0
LINE
8
Základní_vrstva
62
190
10
2938.40395008076
20
4299.69820685962
30
0
11
2938.22080008076
21
4299.74815685962
31
0
0
LINE
8
Základní_vrstva
62
190
10
2938.22080008076
20
4299.74815685962
30
0
11
2938.07095008076
21
4299.85360685962
31
0
0
LINE
8
Základní_vrstva
62
190
10
2938.07095008076
20
4299.85360685962
30
0
11
2937.89890008076
21
4299.93130685962
31
0
0
LINE
8
Základní_vrstva
62
190
10
2937.89890008076
20
4299.93130685962
30
0
11
2937.71575008076
21
4299.88135685962
31
0
0
LINE
8
Základní_vrstva
62
190
10
2937.71575008076
20
4299.88135685962
30
0
11
2937.55480008076
21
4299.80365685962
31
0
0
LINE
8
Základní_vrstva
62
190
10
2937.55480008076
20
4299.80365685962
30
0
11
2937.36610008076
21
4299.78700685962
31
0
0
LINE
8
Základní_vrstva
62
190
10
2937.36610008076
20
4299.78700685962
30
0
11
2937.17740008076
21
4299.74260685962
31
0
0
LINE
8
Základní_vrstva
62
190
10
2937.17740008076
20
4299.74260685962
30
0
11
2937.06085008076
21
4299.58165685962
31
0
0
LINE
8
Základní_vrstva
62
190
10
2937.06085008076
20
4299.58165685962
30
0
11
2936.97760008076
21
4299.40960685962
31
0
0
LINE
8
Základní_vrstva
62
190
10
2936.97760008076
20
4299.40960685962
30
0
11
2936.84995008076
21
4299.28195685962
31
0
0
LINE
8
Základní_vrstva
62
190
10
2936.84995008076
20
4299.28195685962
30
0
11
2936.73895008076
21
4299.10990685962
31
0
0
LINE
8
Základní_vrstva
62
190
10
2936.73895008076
20
4299.10990685962
30
0
11
2936.75560008076
21
4298.92120685962
31
0
0
LINE
8
Základní_vrstva
62
190
10
2936.75560008076
20
4298.92120685962
30
0
11
2936.80555008076
21
4298.74915685962
31
0
0
LINE
8
Základní_vrstva
62
190
10
2936.80555008076
20
4298.74915685962
30
0
11
2936.78335008076
21
4298.56600685962
31
0
0
LINE
8
Základní_vrstva
62
190
10
2936.78335008076
20
4298.56600685962
30
0
11
2936.80000008076
21
4298.37730685962
31
0
0
LINE
8
Základní_vrstva
62
190
10
2936.80000008076
20
4298.37730685962
30
0
11
2936.93875008076
21
4298.23300685962
31
0
0
LINE
8
Základní_vrstva
62
190
10
2936.93875008076
20
4298.23300685962
30
0
11
2937.09970008076
21
4298.12200685962
31
0
0
LINE
8
Základní_vrstva
62
190
10
2937.09970008076
20
4298.12200685962
30
0
11
2937.20515008076
21
4297.97215685962
31
0
0
LINE
8
Základní_vrstva
62
190
10
2937.20515008076
20
4297.97215685962
30
0
11
2937.32725008076
21
4297.84450685962
31
0
0
LINE
8
Základní_vrstva
62
190
10
2937.32725008076
20
4297.84450685962
30
0
11
2937.51595008076
21
4297.82785685962
31
0
0
LINE
8
Základní_vrstva
62
190
10
2937.51595008076
20
4297.82785685962
30
0
11
2937.71020008076
21
4297.84450685962
31
0
0
LINE
8
Základní_vrstva
62
190
10
2937.71020008076
20
4297.84450685962
30
0
11
2937.88780008076
21
4297.79455685962
31
0
0
LINE
8
Základní_vrstva
62
190
10
2937.88780008076
20
4297.79455685962
30
0
11
2938.08205008076
21
4297.77790685962
31
0
0
LINE
8
Základní_vrstva
62
190
10
2938.08205008076
20
4297.77790685962
30
0
11
2938.23745008076
21
4297.88335685962
31
0
0
LINE
8
Základní_vrstva
62
190
10
2938.23745008076
20
4297.88335685962
30
0
11
2938.36510008076
21
4298.01655685962
31
0
0
LINE
8
Základní_vrstva
62
190
10
2938.36510008076
20
4298.01655685962
30
0
11
2938.53715008076
21
4298.09425685962
31
0
0
LINE
8
Základní_vrstva
62
190
10
2938.53715008076
20
4298.09425685962
30
0
11
2938.69810008076
21
4298.21080685962
31
0
0
LINE
8
Základní_vrstva
62
190
10
2938.69810008076
20
4298.21080685962
30
0
11
2938.75360008076
21
4298.39950685962
31
0
0
LINE
8
Základní_vrstva
62
190
10
2938.75360008076
20
4298.39950685962
30
0
11
2938.76470008076
21
4298.58820685962
31
0
0
LINE
8
Základní_vrstva
62
190
10
2938.76470008076
20
4298.58820685962
30
0
11
2938.84240008076
21
4298.76580685962
31
0
0
LINE
8
Základní_vrstva
62
190
10
2938.84240008076
20
4298.76580685962
30
0
11
2938.89235008076
21
4298.92675685962
31
0
0
CIRCLE
8
Základní_vrstva
62
190
10
2937.79900008076
20
4298.83795685962
30
0
40
0.0925000000002001
0
LINE
8
Základní_vrstva
62
190
10
2920.03884383076
20
4329.49655060962
30
0
11
2922.42009383076
21
4318.08639435962
31
0
0
TEXT
8
Základní_vrstva
62
190
10
2918.86384383076
20
4335.13639435962
30
0
40
3
50
0
11
2918.86384383076
21
4335.13639435962
31
0
1
4
72
0
73
3
0
LINE
8
Základní_vrstva
62
1
10
2939.61814383076
20
4307.34513185962
30
0
11
2939.58574383076
21
4307.49633185962
31
0
0
LINE
8
Základní_vrstva
62
1
10
2939.58574383076
20
4307.49633185962
30
0
11
2939.48854383076
21
4307.64753185962
31
0
0
LINE
8
Základní_vrstva
62
1
10
2939.48854383076
20
4307.64753185962
30
0
11
2939.27254383076
21
4307.98233185962
31
0
0
LINE
8
Základní_vrstva
62
1
10
2939.27254383076
20
4307.98233185962
30
0
11
2939.17534383076
21
4308.34953185962
31
0
0
LINE
8
Základní_vrstva
62
1
10
2939.17534383076
20
4308.34953185962
30
0
11
2939.13214383076
21
4308.52233185962
31
0
0
LINE
8
Základní_vrstva
62
1
10
2939.13214383076
20
4308.52233185962
30
0
11
2939.02414383076
21
4308.67353185962
31
0
0
LINE
8
Základní_vrstva
62
1
10
2939.02414383076
20
4308.67353185962
30
0
11
2938.86754383076
21
4308.78693185962
31
0
0
LINE
8
Základní_vrstva
62
1
10
2938.86754383076
20
4308.78693185962
30
0
11
2938.67854383076
21
4308.84633185962
31
0
0
LINE
8
Základní_vrstva
62
1
10
2938.67854383076
20
4308.84633185962
30
0
11
2938.32214383076
21
4308.94353185962
31
0
0
LINE
8
Základní_vrstva
62
1
10
2938.32214383076
20
4308.94353185962
30
0
11
2938.03054383076
21
4309.14873185962
31
0
0
LINE
8
Základní_vrstva
62
1
10
2938.03054383076
20
4309.14873185962
30
0
11
2937.87664383076
21
4309.25673185962
31
0
0
LINE
8
Základní_vrstva
62
1
10
2937.87664383076
20
4309.25673185962
30
0
11
2937.69574383076
21
4309.29993185962
31
0
0
LINE
8
Základní_vrstva
62
1
10
2937.69574383076
20
4309.29993185962
30
0
11
2937.50944383076
21
4309.28103185962
31
0
0
LINE
8
Základní_vrstva
62
1
10
2937.50944383076
20
4309.28103185962
30
0
11
2937.33934383076
21
4309.20273185962
31
0
0
LINE
8
Základní_vrstva
62
1
10
2937.33934383076
20
4309.20273185962
30
0
11
2937.02614383076
21
4309.05153185962
31
0
0
LINE
8
Základní_vrstva
62
1
10
2937.02614383076
20
4309.05153185962
30
0
11
2936.65894383076
21
4309.01913185962
31
0
0
LINE
8
Základní_vrstva
62
1
10
2936.65894383076
20
4309.01913185962
30
0
11
2936.45914383076
21
4309.00293185962
31
0
0
LINE
8
Základní_vrstva
62
1
10
2936.45914383076
20
4309.00293185962
30
0
11
2936.29174383076
21
4308.93273185962
31
0
0
LINE
8
Základní_vrstva
62
1
10
2936.29174383076
20
4308.93273185962
30
0
11
2936.15944383076
21
4308.80583185962
31
0
0
LINE
8
Základní_vrstva
62
1
10
2936.15944383076
20
4308.80583185962
30
0
11
2936.06494383076
21
4308.61953185962
31
0
0
LINE
8
Základní_vrstva
62
1
10
2936.06494383076
20
4308.61953185962
30
0
11
2935.90294383076
21
4308.28473185962
31
0
0
LINE
8
Základní_vrstva
62
1
10
2935.90294383076
20
4308.28473185962
30
0
11
2935.65454383076
21
4308.03633185962
31
0
0
LINE
8
Základní_vrstva
62
1
10
2935.65454383076
20
4308.03633185962
30
0
11
2935.51954383076
21
4307.88783185962
31
0
0
LINE
8
Základní_vrstva
62
1
10
2935.51954383076
20
4307.88783185962
30
0
11
2935.43854383076
21
4307.70153185962
31
0
0
LINE
8
Základní_vrstva
62
1
10
2935.43854383076
20
4307.70153185962
30
0
11
2935.41964383076
21
4307.50713185962
31
0
0
LINE
8
Základní_vrstva
62
1
10
2935.41964383076
20
4307.50713185962
30
0
11
2935.47094383076
21
4307.33433185962
31
0
0
LINE
8
Základní_vrstva
62
1
10
2935.47094383076
20
4307.33433185962
30
0
11
2935.56814383076
21
4306.99953185962
31
0
0
LINE
8
Základní_vrstva
62
1
10
2935.56814383076
20
4306.99953185962
30
0
11
2935.52494383076
21
4306.64313185962
31
0
0
LINE
8
Základní_vrstva
62
1
10
2935.52494383076
20
4306.64313185962
30
0
11
2935.50604383076
21
4306.45953185962
31
0
0
LINE
8
Základní_vrstva
62
1
10
2935.50604383076
20
4306.45953185962
30
0
11
2935.55734383076
21
4306.27593185962
31
0
0
LINE
8
Základní_vrstva
62
1
10
2935.55734383076
20
4306.27593185962
30
0
11
2935.66804383076
21
4306.11393185962
31
0
0
LINE
8
Základní_vrstva
62
1
10
2935.66804383076
20
4306.11393185962
30
0
11
2935.82734383076
21
4305.99513185962
31
0
0
LINE
8
Základní_vrstva
62
1
10
2935.82734383076
20
4305.99513185962
30
0
11
2936.14054383076
21
4305.77913185962
31
0
0
LINE
8
Základní_vrstva
62
1
10
2936.14054383076
20
4305.77913185962
30
0
11
2936.34574383076
21
4305.48753185962
31
0
0
LINE
8
Základní_vrstva
62
1
10
2936.34574383076
20
4305.48753185962
30
0
11
2936.44294383076
21
4305.33903185962
31
0
0
LINE
8
Základní_vrstva
62
1
10
2936.44294383076
20
4305.33903185962
30
0
11
2936.58334383076
21
4305.23913185962
31
0
0
LINE
8
Základní_vrstva
62
1
10
2936.58334383076
20
4305.23913185962
30
0
11
2936.75614383076
21
4305.19323185962
31
0
0
LINE
8
Základní_vrstva
62
1
10
2936.75614383076
20
4305.19323185962
30
0
11
2936.95054383076
21
4305.20673185962
31
0
0
LINE
8
Základní_vrstva
62
1
10
2936.95054383076
20
4305.20673185962
30
0
11
2937.32854383076
21
4305.23913185962
31
0
0
LINE
8
Základní_vrstva
62
1
10
2937.32854383076
20
4305.23913185962
30
0
11
2937.67414383076
21
4305.14193185962
31
0
0
LINE
8
Základní_vrstva
62
1
10
2937.67414383076
20
4305.14193185962
30
0
11
2937.85504383076
21
4305.09063185962
31
0
0
LINE
8
Základní_vrstva
62
1
10
2937.85504383076
20
4305.09063185962
30
0
11
2938.05214383076
21
4305.10953185962
31
0
0
LINE
8
Základní_vrstva
62
1
10
2938.05214383076
20
4305.10953185962
30
0
11
2938.23034383076
21
4305.18783185962
31
0
0
LINE
8
Základní_vrstva
62
1
10
2938.23034383076
20
4305.18783185962
30
0
11
2938.35454383076
21
4305.31473185962
31
0
0
LINE
8
Základní_vrstva
62
1
10
2938.35454383076
20
4305.31473185962
30
0
11
2938.60294383076
21
4305.57393185962
31
0
0
LINE
8
Základní_vrstva
62
1
10
2938.60294383076
20
4305.57393185962
30
0
11
2938.93774383076
21
4305.72513185962
31
0
0
LINE
8
Základní_vrstva
62
1
10
2938.93774383076
20
4305.72513185962
30
0
11
2939.10784383076
21
4305.80343185962
31
0
0
LINE
8
Základní_vrstva
62
1
10
2939.10784383076
20
4305.80343185962
30
0
11
2939.25094383076
21
4305.95193185962
31
0
0
LINE
8
Základní_vrstva
62
1
10
2939.25094383076
20
4305.95193185962
30
0
11
2939.34274383076
21
4306.13553185962
31
0
0
LINE
8
Základní_vrstva
62
1
10
2939.34274383076
20
4306.13553185962
30
0
11
2939.35894383076
21
4306.31913185962
31
0
0
LINE
8
Základní_vrstva
62
1
10
2939.35894383076
20
4306.31913185962
30
0
11
2939.38054383076
21
4306.68633185962
31
0
0
LINE
8
Základní_vrstva
62
1
10
2939.38054383076
20
4306.68633185962
30
0
11
2939.53174383076
21
4307.03193185962
31
0
0
LINE
8
Základní_vrstva
62
1
10
2939.53174383076
20
4307.03193185962
30
0
11
2939.61004383076
21
4307.19123185962
31
0
0
LINE
8
Základní_vrstva
62
1
10
2939.61004383076
20
4307.19123185962
30
0
11
2939.62894383076
21
4307.34513185962
31
0
0
CIRCLE
8
Základní_vrstva
62
1
10
2937.50134383076
20
4307.17233185962
30
0
40
0.179999999999836
0
LINE
8
Základní_vrstva
62
1
10
2936.54236258076
20
4304.26935060962
30
0
11
2936.50996258076
21
4304.42055060962
31
0
0
LINE
8
Základní_vrstva
62
1
10
2936.50996258076
20
4304.42055060962
30
0
11
2936.41276258076
21
4304.57175060962
31
0
0
LINE
8
Základní_vrstva
62
1
10
2936.41276258076
20
4304.57175060962
30
0
11
2936.19676258076
21
4304.90655060962
31
0
0
LINE
8
Základní_vrstva
62
1
10
2936.19676258076
20
4304.90655060962
30
0
11
2936.09956258076
21
4305.27375060962
31
0
0
LINE
8
Základní_vrstva
62
1
10
2936.09956258076
20
4305.27375060962
30
0
11
2936.05636258076
21
4305.44655060962
31
0
0
LINE
8
Základní_vrstva
62
1
10
2936.05636258076
20
4305.44655060962
30
0
11
2935.94836258076
21
4305.59775060962
31
0
0
LINE
8
Základní_vrstva
62
1
10
2935.94836258076
20
4305.59775060962
30
0
11
2935.79176258076
21
4305.71115060962
31
0
0
LINE
8
Základní_vrstva
62
1
10
2935.79176258076
20
4305.71115060962
30
0
11
2935.60276258076
21
4305.77055060962
31
0
0
LINE
8
Základní_vrstva
62
1
10
2935.60276258076
20
4305.77055060962
30
0
11
2935.24636258076
21
4305.86775060962
31
0
0
LINE
8
Základní_vrstva
62
1
10
2935.24636258076
20
4305.86775060962
30
0
11
2934.95476258076
21
4306.07295060962
31
0
0
LINE
8
Základní_vrstva
62
1
10
2934.95476258076
20
4306.07295060962
30
0
11
2934.80086258076
21
4306.18095060962
31
0
0
LINE
8
Základní_vrstva
62
1
10
2934.80086258076
20
4306.18095060962
30
0
11
2934.61996258076
21
4306.22415060962
31
0
0
LINE
8
Základní_vrstva
62
1
10
2934.61996258076
20
4306.22415060962
30
0
11
2934.43366258076
21
4306.20525060962
31
0
0
LINE
8
Základní_vrstva
62
1
10
2934.43366258076
20
4306.20525060962
30
0
11
2934.26356258076
21
4306.12695060962
31
0
0
LINE
8
Základní_vrstva
62
1
10
2934.26356258076
20
4306.12695060962
30
0
11
2933.95036258076
21
4305.97575060962
31
0
0
LINE
8
Základní_vrstva
62
1
10
2933.95036258076
20
4305.97575060962
30
0
11
2933.58316258076
21
4305.94335060962
31
0
0
LINE
8
Základní_vrstva
62
1
10
2933.58316258076
20
4305.94335060962
30
0
11
2933.38336258076
21
4305.92715060962
31
0
0
LINE
8
Základní_vrstva
62
1
10
2933.38336258076
20
4305.92715060962
30
0
11
2933.21596258076
21
4305.85695060962
31
0
0
LINE
8
Základní_vrstva
62
1
10
2933.21596258076
20
4305.85695060962
30
0
11
2933.08366258076
21
4305.73005060962
31
0
0
LINE
8
Základní_vrstva
62
1
10
2933.08366258076
20
4305.73005060962
30
0
11
2932.98916258076
21
4305.54375060962
31
0
0
LINE
8
Základní_vrstva
62
1
10
2932.98916258076
20
4305.54375060962
30
0
11
2932.82716258076
21
4305.20895060962
31
0
0
LINE
8
Základní_vrstva
62
1
10
2932.82716258076
20
4305.20895060962
30
0
11
2932.57876258076
21
4304.96055060962
31
0
0
LINE
8
Základní_vrstva
62
1
10
2932.57876258076
20
4304.96055060962
30
0
11
2932.44376258076
21
4304.81205060962
31
0
0
LINE
8
Základní_vrstva
62
1
10
2932.44376258076
20
4304.81205060962
30
0
11
2932.36276258076
21
4304.62575060962
31
0
0
LINE
8
Základní_vrstva
62
1
10
2932.36276258076
20
4304.62575060962
30
0
11
2932.34386258076
21
4304.43135060962
31
0
0
LINE
8
Základní_vrstva
62
1
10
2932.34386258076
20
4304.43135060962
30
0
11
2932.39516258076
21
4304.25855060962
31
0
0
LINE
8
Základní_vrstva
62
1
10
2932.39516258076
20
4304.25855060962
30
0
11
2932.49236258076
21
4303.92375060962
31
0
0
LINE
8
Základní_vrstva
62
1
10
2932.49236258076
20
4303.92375060962
30
0
11
2932.44916258076
21
4303.56735060962
31
0
0
LINE
8
Základní_vrstva
62
1
10
2932.44916258076
20
4303.56735060962
30
0
11
2932.43026258076
21
4303.38375060962
31
0
0
LINE
8
Základní_vrstva
62
1
10
2932.43026258076
20
4303.38375060962
30
0
11
2932.48156258076
21
4303.20015060962
31
0
0
LINE
8
Základní_vrstva
62
1
10
2932.48156258076
20
4303.20015060962
30
0
11
2932.59226258076
21
4303.03815060962
31
0
0
LINE
8
Základní_vrstva
62
1
10
2932.59226258076
20
4303.03815060962
30
0
11
2932.75156258076
21
4302.91935060962
31
0
0
LINE
8
Základní_vrstva
62
1
10
2932.75156258076
20
4302.91935060962
30
0
11
2933.06476258076
21
4302.70335060962
31
0
0
LINE
8
Základní_vrstva
62
1
10
2933.06476258076
20
4302.70335060962
30
0
11
2933.26996258076
21
4302.41175060962
31
0
0
LINE
8
Základní_vrstva
62
1
10
2933.26996258076
20
4302.41175060962
30
0
11
2933.36716258076
21
4302.26325060962
31
0
0
LINE
8
Základní_vrstva
62
1
10
2933.36716258076
20
4302.26325060962
30
0
11
2933.50756258076
21
4302.16335060962
31
0
0
LINE
8
Základní_vrstva
62
1
10
2933.50756258076
20
4302.16335060962
30
0
11
2933.68036258076
21
4302.11745060962
31
0
0
LINE
8
Základní_vrstva
62
1
10
2933.68036258076
20
4302.11745060962
30
0
11
2933.87476258076
21
4302.13095060962
31
0
0
LINE
8
Základní_vrstva
62
1
10
2933.87476258076
20
4302.13095060962
30
0
11
2934.25276258076
21
4302.16335060962
31
0
0
LINE
8
Základní_vrstva
62
1
10
2934.25276258076
20
4302.16335060962
30
0
11
2934.59836258076
21
4302.06615060962
31
0
0
LINE
8
Základní_vrstva
62
1
10
2934.59836258076
20
4302.06615060962
30
0
11
2934.77926258076
21
4302.01485060962
31
0
0
LINE
8
Základní_vrstva
62
1
10
2934.77926258076
20
4302.01485060962
30
0
11
2934.97636258076
21
4302.03375060962
31
0
0
LINE
8
Základní_vrstva
62
1
10
2934.97636258076
20
4302.03375060962
30
0
11
2935.15456258076
21
4302.11205060962
31
0
0
LINE
8
Základní_vrstva
62
1
10
2935.15456258076
20
4302.11205060962
30
0
11
2935.27876258076
21
4302.23895060962
31
0
0
LINE
8
Základní_vrstva
62
1
10
2935.27876258076
20
4302.23895060962
30
0
11
2935.52716258076
21
4302.49815060962
31
0
0
LINE
8
Základní_vrstva
62
1
10
2935.52716258076
20
4302.49815060962
30
0
11
2935.86196258076
21
4302.64935060962
31
0
0
LINE
8
Základní_vrstva
62
1
10
2935.86196258076
20
4302.64935060962
30
0
11
2936.03206258076
21
4302.72765060962
31
0
0
LINE
8
Základní_vrstva
62
1
10
2936.03206258076
20
4302.72765060962
30
0
11
2936.17516258076
21
4302.87615060962
31
0
0
LINE
8
Základní_vrstva
62
1
10
2936.17516258076
20
4302.87615060962
30
0
11
2936.26696258076
21
4303.05975060962
31
0
0
LINE
8
Základní_vrstva
62
1
10
2936.26696258076
20
4303.05975060962
30
0
11
2936.28316258076
21
4303.24335060962
31
0
0
LINE
8
Základní_vrstva
62
1
10
2936.28316258076
20
4303.24335060962
30
0
11
2936.30476258076
21
4303.61055060962
31
0
0
LINE
8
Základní_vrstva
62
1
10
2936.30476258076
20
4303.61055060962
30
0
11
2936.45596258076
21
4303.95615060962
31
0
0
LINE
8
Základní_vrstva
62
1
10
2936.45596258076
20
4303.95615060962
30
0
11
2936.53426258076
21
4304.11545060962
31
0
0
LINE
8
Základní_vrstva
62
1
10
2936.53426258076
20
4304.11545060962
30
0
11
2936.55316258076
21
4304.26935060962
31
0
0
CIRCLE
8
Základní_vrstva
62
1
10
2934.42556258076
20
4304.09655060962
30
0
40
0.179999999999836
0
LINE
8
Základní_vrstva
62
1
10
2929.79548758076
20
4307.04747560962
30
0
11
2929.76308758076
21
4307.19867560962
31
0
0
LINE
8
Základní_vrstva
62
1
10
2929.76308758076
20
4307.19867560962
30
0
11
2929.66588758076
21
4307.34987560962
31
0
0
LINE
8
Základní_vrstva
62
1
10
2929.66588758076
20
4307.34987560962
30
0
11
2929.44988758076
21
4307.68467560962
31
0
0
LINE
8
Základní_vrstva
62
1
10
2929.44988758076
20
4307.68467560962
30
0
11
2929.35268758076
21
4308.05187560962
31
0
0
LINE
8
Základní_vrstva
62
1
10
2929.35268758076
20
4308.05187560962
30
0
11
2929.30948758076
21
4308.22467560962
31
0
0
LINE
8
Základní_vrstva
62
1
10
2929.30948758076
20
4308.22467560962
30
0
11
2929.20148758076
21
4308.37587560962
31
0
0
LINE
8
Základní_vrstva
62
1
10
2929.20148758076
20
4308.37587560962
30
0
11
2929.04488758076
21
4308.48927560962
31
0
0
LINE
8
Základní_vrstva
62
1
10
2929.04488758076
20
4308.48927560962
30
0
11
2928.85588758076
21
4308.54867560962
31
0
0
LINE
8
Základní_vrstva
62
1
10
2928.85588758076
20
4308.54867560962
30
0
11
2928.49948758076
21
4308.64587560962
31
0
0
LINE
8
Základní_vrstva
62
1
10
2928.49948758076
20
4308.64587560962
30
0
11
2928.20788758076
21
4308.85107560962
31
0
0
LINE
8
Základní_vrstva
62
1
10
2928.20788758076
20
4308.85107560962
30
0
11
2928.05398758076
21
4308.95907560962
31
0
0
LINE
8
Základní_vrstva
62
1
10
2928.05398758076
20
4308.95907560962
30
0
11
2927.87308758076
21
4309.00227560962
31
0
0
LINE
8
Základní_vrstva
62
1
10
2927.87308758076
20
4309.00227560962
30
0
11
2927.68678758076
21
4308.98337560962
31
0
0
LINE
8
Základní_vrstva
62
1
10
2927.68678758076
20
4308.98337560962
30
0
11
2927.51668758076
21
4308.90507560962
31
0
0
LINE
8
Základní_vrstva
62
1
10
2927.51668758076
20
4308.90507560962
30
0
11
2927.20348758076
21
4308.75387560962
31
0
0
LINE
8
Základní_vrstva
62
1
10
2927.20348758076
20
4308.75387560962
30
0
11
2926.83628758076
21
4308.72147560962
31
0
0
LINE
8
Základní_vrstva
62
1
10
2926.83628758076
20
4308.72147560962
30
0
11
2926.63648758076
21
4308.70527560962
31
0
0
LINE
8
Základní_vrstva
62
1
10
2926.63648758076
20
4308.70527560962
30
0
11
2926.46908758076
21
4308.63507560962
31
0
0
LINE
8
Základní_vrstva
62
1
10
2926.46908758076
20
4308.63507560962
30
0
11
2926.33678758076
21
4308.50817560962
31
0
0
LINE
8
Základní_vrstva
62
1
10
2926.33678758076
20
4308.50817560962
30
0
11
2926.24228758076
21
4308.32187560962
31
0
0
LINE
8
Základní_vrstva
62
1
10
2926.24228758076
20
4308.32187560962
30
0
11
2926.08028758076
21
4307.98707560962
31
0
0
LINE
8
Základní_vrstva
62
1
10
2926.08028758076
20
4307.98707560962
30
0
11
2925.83188758076
21
4307.73867560962
31
0
0
LINE
8
Základní_vrstva
62
1
10
2925.83188758076
20
4307.73867560962
30
0
11
2925.69688758076
21
4307.59017560962
31
0
0
LINE
8
Základní_vrstva
62
1
10
2925.69688758076
20
4307.59017560962
30
0
11
2925.61588758076
21
4307.40387560962
31
0
0
LINE
8
Základní_vrstva
62
1
10
2925.61588758076
20
4307.40387560962
30
0
11
2925.59698758076
21
4307.20947560962
31
0
0
LINE
8
Základní_vrstva
62
1
10
2925.59698758076
20
4307.20947560962
30
0
11
2925.64828758076
21
4307.03667560962
31
0
0
LINE
8
Základní_vrstva
62
1
10
2925.64828758076
20
4307.03667560962
30
0
11
2925.74548758076
21
4306.70187560962
31
0
0
LINE
8
Základní_vrstva
62
1
10
2925.74548758076
20
4306.70187560962
30
0
11
2925.70228758076
21
4306.34547560962
31
0
0
LINE
8
Základní_vrstva
62
1
10
2925.70228758076
20
4306.34547560962
30
0
11
2925.68338758076
21
4306.16187560962
31
0
0
LINE
8
Základní_vrstva
62
1
10
2925.68338758076
20
4306.16187560962
30
0
11
2925.73468758076
21
4305.97827560962
31
0
0
LINE
8
Základní_vrstva
62
1
10
2925.73468758076
20
4305.97827560962
30
0
11
2925.84538758076
21
4305.81627560962
31
0
0
LINE
8
Základní_vrstva
62
1
10
2925.84538758076
20
4305.81627560962
30
0
11
2926.00468758076
21
4305.69747560962
31
0
0
LINE
8
Základní_vrstva
62
1
10
2926.00468758076
20
4305.69747560962
30
0
11
2926.31788758076
21
4305.48147560962
31
0
0
LINE
8
Základní_vrstva
62
1
10
2926.31788758076
20
4305.48147560962
30
0
11
2926.52308758076
21
4305.18987560962
31
0
0
LINE
8
Základní_vrstva
62
1
10
2926.52308758076
20
4305.18987560962
30
0
11
2926.62028758076
21
4305.04137560962
31
0
0
LINE
8
Základní_vrstva
62
1
10
2926.62028758076
20
4305.04137560962
30
0
11
2926.76068758076
21
4304.94147560962
31
0
0
LINE
8
Základní_vrstva
62
1
10
2926.76068758076
20
4304.94147560962
30
0
11
2926.93348758076
21
4304.89557560962
31
0
0
LINE
8
Základní_vrstva
62
1
10
2926.93348758076
20
4304.89557560962
30
0
11
2927.12788758076
21
4304.90907560962
31
0
0
LINE
8
Základní_vrstva
62
1
10
2927.12788758076
20
4304.90907560962
30
0
11
2927.50588758076
21
4304.94147560962
31
0
0
LINE
8
Základní_vrstva
62
1
10
2927.50588758076
20
4304.94147560962
30
0
11
2927.85148758076
21
4304.84427560962
31
0
0
LINE
8
Základní_vrstva
62
1
10
2927.85148758076
20
4304.84427560962
30
0
11
2928.03238758076
21
4304.79297560962
31
0
0
LINE
8
Základní_vrstva
62
1
10
2928.03238758076
20
4304.79297560962
30
0
11
2928.22948758076
21
4304.81187560962
31
0
0
LINE
8
Základní_vrstva
62
1
10
2928.22948758076
20
4304.81187560962
30
0
11
2928.40768758076
21
4304.89017560962
31
0
0
LINE
8
Základní_vrstva
62
1
10
2928.40768758076
20
4304.89017560962
30
0
11
2928.53188758076
21
4305.01707560962
31
0
0
LINE
8
Základní_vrstva
62
1
10
2928.53188758076
20
4305.01707560962
30
0
11
2928.78028758076
21
4305.27627560962
31
0
0
LINE
8
Základní_vrstva
62
1
10
2928.78028758076
20
4305.27627560962
30
0
11
2929.11508758076
21
4305.42747560962
31
0
0
LINE
8
Základní_vrstva
62
1
10
2929.11508758076
20
4305.42747560962
30
0
11
2929.28518758076
21
4305.50577560962
31
0
0
LINE
8
Základní_vrstva
62
1
10
2929.28518758076
20
4305.50577560962
30
0
11
2929.42828758076
21
4305.65427560962
31
0
0
LINE
8
Základní_vrstva
62
1
10
2929.42828758076
20
4305.65427560962
30
0
11
2929.52008758076
21
4305.83787560962
31
0
0
LINE
8
Základní_vrstva
62
1
10
2929.52008758076
20
4305.83787560962
30
0
11
2929.53628758076
21
4306.02147560962
31
0
0
LINE
8
Základní_vrstva
62
1
10
2929.53628758076
20
4306.02147560962
30
0
11
2929.55788758076
21
4306.38867560962
31
0
0
LINE
8
Základní_vrstva
62
1
10
2929.55788758076
20
4306.38867560962
30
0
11
2929.70908758076
21
4306.73427560962
31
0
0
LINE
8
Základní_vrstva
62
1
10
2929.70908758076
20
4306.73427560962
30
0
11
2929.78738758076
21
4306.89357560962
31
0
0
LINE
8
Základní_vrstva
62
1
10
2929.78738758076
20
4306.89357560962
30
0
11
2929.80628758076
21
4307.04747560962
31
0
0
CIRCLE
8
Základní_vrstva
62
1
10
2927.67868758076
20
4306.87467560962
30
0
40
0.179999999999836
0
LINE
8
Základní_vrstva
62
1
10
2924.53689383076
20
4306.94825685962
30
0
11
2924.50449383076
21
4307.09945685962
31
0
0
LINE
8
Základní_vrstva
62
1
10
2924.50449383076
20
4307.09945685962
30
0
11
2924.40729383076
21
4307.25065685962
31
0
0
LINE
8
Základní_vrstva
62
1
10
2924.40729383076
20
4307.25065685962
30
0
11
2924.19129383076
21
4307.58545685962
31
0
0
LINE
8
Základní_vrstva
62
1
10
2924.19129383076
20
4307.58545685962
30
0
11
2924.09409383076
21
4307.95265685962
31
0
0
LINE
8
Základní_vrstva
62
1
10
2924.09409383076
20
4307.95265685962
30
0
11
2924.05089383076
21
4308.12545685962
31
0
0
LINE
8
Základní_vrstva
62
1
10
2924.05089383076
20
4308.12545685962
30
0
11
2923.94289383076
21
4308.27665685962
31
0
0
LINE
8
Základní_vrstva
62
1
10
2923.94289383076
20
4308.27665685962
30
0
11
2923.78629383076
21
4308.39005685962
31
0
0
LINE
8
Základní_vrstva
62
1
10
2923.78629383076
20
4308.39005685962
30
0
11
2923.59729383076
21
4308.44945685962
31
0
0
LINE
8
Základní_vrstva
62
1
10
2923.59729383076
20
4308.44945685962
30
0
11
2923.24089383076
21
4308.54665685962
31
0
0
LINE
8
Základní_vrstva
62
1
10
2923.24089383076
20
4308.54665685962
30
0
11
2922.94929383076
21
4308.75185685962
31
0
0
LINE
8
Základní_vrstva
62
1
10
2922.94929383076
20
4308.75185685962
30
0
11
2922.79539383076
21
4308.85985685962
31
0
0
LINE
8
Základní_vrstva
62
1
10
2922.79539383076
20
4308.85985685962
30
0
11
2922.61449383076
21
4308.90305685962
31
0
0
LINE
8
Základní_vrstva
62
1
10
2922.61449383076
20
4308.90305685962
30
0
11
2922.42819383076
21
4308.88415685962
31
0
0
LINE
8
Základní_vrstva
62
1
10
2922.42819383076
20
4308.88415685962
30
0
11
2922.25809383076
21
4308.80585685962
31
0
0
LINE
8
Základní_vrstva
62
1
10
2922.25809383076
20
4308.80585685962
30
0
11
2921.94489383076
21
4308.65465685962
31
0
0
LINE
8
Základní_vrstva
62
1
10
2921.94489383076
20
4308.65465685962
30
0
11
2921.57769383076
21
4308.62225685962
31
0
0
LINE
8
Základní_vrstva
62
1
10
2921.57769383076
20
4308.62225685962
30
0
11
2921.37789383076
21
4308.60605685962
31
0
0
LINE
8
Základní_vrstva
62
1
10
2921.37789383076
20
4308.60605685962
30
0
11
2921.21049383076
21
4308.53585685962
31
0
0
LINE
8
Základní_vrstva
62
1
10
2921.21049383076
20
4308.53585685962
30
0
11
2921.07819383076
21
4308.40895685962
31
0
0
LINE
8
Základní_vrstva
62
1
10
2921.07819383076
20
4308.40895685962
30
0
11
2920.98369383076
21
4308.22265685962
31
0
0
LINE
8
Základní_vrstva
62
1
10
2920.98369383076
20
4308.22265685962
30
0
11
2920.82169383076
21
4307.88785685962
31
0
0
LINE
8
Základní_vrstva
62
1
10
2920.82169383076
20
4307.88785685962
30
0
11
2920.57329383076
21
4307.63945685962
31
0
0
LINE
8
Základní_vrstva
62
1
10
2920.57329383076
20
4307.63945685962
30
0
11
2920.43829383076
21
4307.49095685962
31
0
0
LINE
8
Základní_vrstva
62
1
10
2920.43829383076
20
4307.49095685962
30
0
11
2920.35729383076
21
4307.30465685962
31
0
0
LINE
8
Základní_vrstva
62
1
10
2920.35729383076
20
4307.30465685962
30
0
11
2920.33839383076
21
4307.11025685962
31
0
0
LINE
8
Základní_vrstva
62
1
10
2920.33839383076
20
4307.11025685962
30
0
11
2920.38969383076
21
4306.93745685962
31
0
0
LINE
8
Základní_vrstva
62
1
10
2920.38969383076
20
4306.93745685962
30
0
11
2920.48689383076
21
4306.60265685962
31
0
0
LINE
8
Základní_vrstva
62
1
10
2920.48689383076
20
4306.60265685962
30
0
11
2920.44369383076
21
4306.24625685962
31
0
0
LINE
8
Základní_vrstva
62
1
10
2920.44369383076
20
4306.24625685962
30
0
11
2920.42479383076
21
4306.06265685962
31
0
0
LINE
8
Základní_vrstva
62
1
10
2920.42479383076
20
4306.06265685962
30
0
11
2920.47609383076
21
4305.87905685962
31
0
0
LINE
8
Základní_vrstva
62
1
10
2920.47609383076
20
4305.87905685962
30
0
11
2920.58679383076
21
4305.71705685962
31
0
0
LINE
8
Základní_vrstva
62
1
10
2920.58679383076
20
4305.71705685962
30
0
11
2920.74609383076
21
4305.59825685962
31
0
0
LINE
8
Základní_vrstva
62
1
10
2920.74609383076
20
4305.59825685962
30
0
11
2921.05929383076
21
4305.38225685962
31
0
0
LINE
8
Základní_vrstva
62
1
10
2921.05929383076
20
4305.38225685962
30
0
11
2921.26449383076
21
4305.09065685962
31
0
0
LINE
8
Základní_vrstva
62
1
10
2921.26449383076
20
4305.09065685962
30
0
11
2921.36169383076
21
4304.94215685962
31
0
0
LINE
8
Základní_vrstva
62
1
10
2921.36169383076
20
4304.94215685962
30
0
11
2921.50209383076
21
4304.84225685962
31
0
0
LINE
8
Základní_vrstva
62
1
10
2921.50209383076
20
4304.84225685962
30
0
11
2921.67489383076
21
4304.79635685962
31
0
0
LINE
8
Základní_vrstva
62
1
10
2921.67489383076
20
4304.79635685962
30
0
11
2921.86929383076
21
4304.80985685962
31
0
0
LINE
8
Základní_vrstva
62
1
10
2921.86929383076
20
4304.80985685962
30
0
11
2922.24729383076
21
4304.84225685962
31
0
0
LINE
8
Základní_vrstva
62
1
10
2922.24729383076
20
4304.84225685962
30
0
11
2922.59289383076
21
4304.74505685962
31
0
0
LINE
8
Základní_vrstva
62
1
10
2922.59289383076
20
4304.74505685962
30
0
11
2922.77379383076
21
4304.69375685962
31
0
0
LINE
8
Základní_vrstva
62
1
10
2922.77379383076
20
4304.69375685962
30
0
11
2922.97089383076
21
4304.71265685962
31
0
0
LINE
8
Základní_vrstva
62
1
10
2922.97089383076
20
4304.71265685962
30
0
11
2923.14909383076
21
4304.79095685962
31
0
0
LINE
8
Základní_vrstva
62
1
10
2923.14909383076
20
4304.79095685962
30
0
11
2923.27329383076
21
4304.91785685962
31
0
0
LINE
8
Základní_vrstva
62
1
10
2923.27329383076
20
4304.91785685962
30
0
11
2923.52169383076
21
4305.17705685962
31
0
0
LINE
8
Základní_vrstva
62
1
10
2923.52169383076
20
4305.17705685962
30
0
11
2923.85649383076
21
4305.32825685962
31
0
0
LINE
8
Základní_vrstva
62
1
10
2923.85649383076
20
4305.32825685962
30
0
11
2924.02659383076
21
4305.40655685962
31
0
0
LINE
8
Základní_vrstva
62
1
10
2924.02659383076
20
4305.40655685962
30
0
11
2924.16969383076
21
4305.55505685962
31
0
0
LINE
8
Základní_vrstva
62
1
10
2924.16969383076
20
4305.55505685962
30
0
11
2924.26149383076
21
4305.73865685962
31
0
0
LINE
8
Základní_vrstva
62
1
10
2924.26149383076
20
4305.73865685962
30
0
11
2924.27769383076
21
4305.92225685962
31
0
0
LINE
8
Základní_vrstva
62
1
10
2924.27769383076
20
4305.92225685962
30
0
11
2924.29929383076
21
4306.28945685962
31
0
0
LINE
8
Základní_vrstva
62
1
10
2924.29929383076
20
4306.28945685962
30
0
11
2924.45049383076
21
4306.63505685962
31
0
0
LINE
8
Základní_vrstva
62
1
10
2924.45049383076
20
4306.63505685962
30
0
11
2924.52879383076
21
4306.79435685962
31
0
0
LINE
8
Základní_vrstva
62
1
10
2924.52879383076
20
4306.79435685962
30
0
11
2924.54769383076
21
4306.94825685962
31
0
0
CIRCLE
8
Základní_vrstva
62
1
10
2922.42009383076
20
4306.77545685962
30
0
40
0.179999999999836
0
LINE
8
Základní_vrstva
62
1
10
2919.77439383076
20
4315.08419435962
30
0
11
2919.74199383076
21
4315.23539435962
31
0
0
LINE
8
Základní_vrstva
62
1
10
2919.74199383076
20
4315.23539435962
30
0
11
2919.64479383076
21
4315.38659435962
31
0
0
LINE
8
Základní_vrstva
62
1
10
2919.64479383076
20
4315.38659435962
30
0
11
2919.42879383076
21
4315.72139435962
31
0
0
LINE
8
Základní_vrstva
62
1
10
2919.42879383076
20
4315.72139435962
30
0
11
2919.33159383076
21
4316.08859435962
31
0
0
LINE
8
Základní_vrstva
62
1
10
2919.33159383076
20
4316.08859435962
30
0
11
2919.28839383076
21
4316.26139435962
31
0
0
LINE
8
Základní_vrstva
62
1
10
2919.28839383076
20
4316.26139435962
30
0
11
2919.18039383076
21
4316.41259435962
31
0
0
LINE
8
Základní_vrstva
62
1
10
2919.18039383076
20
4316.41259435962
30
0
11
2919.02379383076
21
4316.52599435962
31
0
0
LINE
8
Základní_vrstva
62
1
10
2919.02379383076
20
4316.52599435962
30
0
11
2918.83479383076
21
4316.58539435962
31
0
0
LINE
8
Základní_vrstva
62
1
10
2918.83479383076
20
4316.58539435962
30
0
11
2918.47839383076
21
4316.68259435962
31
0
0
LINE
8
Základní_vrstva
62
1
10
2918.47839383076
20
4316.68259435962
30
0
11
2918.18679383076
21
4316.88779435962
31
0
0
LINE
8
Základní_vrstva
62
1
10
2918.18679383076
20
4316.88779435962
30
0
11
2918.03289383076
21
4316.99579435962
31
0
0
LINE
8
Základní_vrstva
62
1
10
2918.03289383076
20
4316.99579435962
30
0
11
2917.85199383076
21
4317.03899435962
31
0
0
LINE
8
Základní_vrstva
62
1
10
2917.85199383076
20
4317.03899435962
30
0
11
2917.66569383076
21
4317.02009435962
31
0
0
LINE
8
Základní_vrstva
62
1
10
2917.66569383076
20
4317.02009435962
30
0
11
2917.49559383076
21
4316.94179435962
31
0
0
LINE
8
Základní_vrstva
62
1
10
2917.49559383076
20
4316.94179435962
30
0
11
2917.18239383076
21
4316.79059435962
31
0
0
LINE
8
Základní_vrstva
62
1
10
2917.18239383076
20
4316.79059435962
30
0
11
2916.81519383076
21
4316.75819435962
31
0
0
LINE
8
Základní_vrstva
62
1
10
2916.81519383076
20
4316.75819435962
30
0
11
2916.61539383076
21
4316.74199435962
31
0
0
LINE
8
Základní_vrstva
62
1
10
2916.61539383076
20
4316.74199435962
30
0
11
2916.44799383076
21
4316.67179435962
31
0
0
LINE
8
Základní_vrstva
62
1
10
2916.44799383076
20
4316.67179435962
30
0
11
2916.31569383076
21
4316.54489435962
31
0
0
LINE
8
Základní_vrstva
62
1
10
2916.31569383076
20
4316.54489435962
30
0
11
2916.22119383076
21
4316.35859435962
31
0
0
LINE
8
Základní_vrstva
62
1
10
2916.22119383076
20
4316.35859435962
30
0
11
2916.05919383076
21
4316.02379435962
31
0
0
LINE
8
Základní_vrstva
62
1
10
2916.05919383076
20
4316.02379435962
30
0
11
2915.81079383076
21
4315.77539435962
31
0
0
LINE
8
Základní_vrstva
62
1
10
2915.81079383076
20
4315.77539435962
30
0
11
2915.67579383076
21
4315.62689435962
31
0
0
LINE
8
Základní_vrstva
62
1
10
2915.67579383076
20
4315.62689435962
30
0
11
2915.59479383076
21
4315.44059435962
31
0
0
LINE
8
Základní_vrstva
62
1
10
2915.59479383076
20
4315.44059435962
30
0
11
2915.57589383076
21
4315.24619435962
31
0
0
LINE
8
Základní_vrstva
62
1
10
2915.57589383076
20
4315.24619435962
30
0
11
2915.62719383076
21
4315.07339435962
31
0
0
LINE
8
Základní_vrstva
62
1
10
2915.62719383076
20
4315.07339435962
30
0
11
2915.72439383076
21
4314.73859435962
31
0
0
LINE
8
Základní_vrstva
62
1
10
2915.72439383076
20
4314.73859435962
30
0
11
2915.68119383076
21
4314.38219435962
31
0
0
LINE
8
Základní_vrstva
62
1
10
2915.68119383076
20
4314.38219435962
30
0
11
2915.66229383076
21
4314.19859435962
31
0
0
LINE
8
Základní_vrstva
62
1
10
2915.66229383076
20
4314.19859435962
30
0
11
2915.71359383076
21
4314.01499435962
31
0
0
LINE
8
Základní_vrstva
62
1
10
2915.71359383076
20
4314.01499435962
30
0
11
2915.82429383076
21
4313.85299435962
31
0
0
LINE
8
Základní_vrstva
62
1
10
2915.82429383076
20
4313.85299435962
30
0
11
2915.98359383076
21
4313.73419435962
31
0
0
LINE
8
Základní_vrstva
62
1
10
2915.98359383076
20
4313.73419435962
30
0
11
2916.29679383076
21
4313.51819435962
31
0
0
LINE
8
Základní_vrstva
62
1
10
2916.29679383076
20
4313.51819435962
30
0
11
2916.50199383076
21
4313.22659435962
31
0
0
LINE
8
Základní_vrstva
62
1
10
2916.50199383076
20
4313.22659435962
30
0
11
2916.59919383076
21
4313.07809435962
31
0
0
LINE
8
Základní_vrstva
62
1
10
2916.59919383076
20
4313.07809435962
30
0
11
2916.73959383076
21
4312.97819435962
31
0
0
LINE
8
Základní_vrstva
62
1
10
2916.73959383076
20
4312.97819435962
30
0
11
2916.91239383076
21
4312.93229435962
31
0
0
LINE
8
Základní_vrstva
62
1
10
2916.91239383076
20
4312.93229435962
30
0
11
2917.10679383076
21
4312.94579435962
31
0
0
LINE
8
Základní_vrstva
62
1
10
2917.10679383076
20
4312.94579435962
30
0
11
2917.48479383076
21
4312.97819435962
31
0
0
LINE
8
Základní_vrstva
62
1
10
2917.48479383076
20
4312.97819435962
30
0
11
2917.83039383076
21
4312.88099435962
31
0
0
LINE
8
Základní_vrstva
62
1
10
2917.83039383076
20
4312.88099435962
30
0
11
2918.01129383076
21
4312.82969435962
31
0
0
LINE
8
Základní_vrstva
62
1
10
2918.01129383076
20
4312.82969435962
30
0
11
2918.20839383076
21
4312.84859435962
31
0
0
LINE
8
Základní_vrstva
62
1
10
2918.20839383076
20
4312.84859435962
30
0
11
2918.38659383076
21
4312.92689435962
31
0
0
LINE
8
Základní_vrstva
62
1
10
2918.38659383076
20
4312.92689435962
30
0
11
2918.51079383076
21
4313.05379435962
31
0
0
LINE
8
Základní_vrstva
62
1
10
2918.51079383076
20
4313.05379435962
30
0
11
2918.75919383076
21
4313.31299435962
31
0
0
LINE
8
Základní_vrstva
62
1
10
2918.75919383076
20
4313.31299435962
30
0
11
2919.09399383076
21
4313.46419435962
31
0
0
LINE
8
Základní_vrstva
62
1
10
2919.09399383076
20
4313.46419435962
30
0
11
2919.26409383076
21
4313.54249435962
31
0
0
LINE
8
Základní_vrstva
62
1
10
2919.26409383076
20
4313.54249435962
30
0
11
2919.40719383076
21
4313.69099435962
31
0
0
LINE
8
Základní_vrstva
62
1
10
2919.40719383076
20
4313.69099435962
30
0
11
2919.49899383076
21
4313.87459435962
31
0
0
LINE
8
Základní_vrstva
62
1
10
2919.49899383076
20
4313.87459435962
30
0
11
2919.51519383076
21
4314.05819435962
31
0
0
LINE
8
Základní_vrstva
62
1
10
2919.51519383076
20
4314.05819435962
30
0
11
2919.53679383076
21
4314.42539435962
31
0
0
LINE
8
Základní_vrstva
62
1
10
2919.53679383076
20
4314.42539435962
30
0
11
2919.68799383076
21
4314.77099435962
31
0
0
LINE
8
Základní_vrstva
62
1
10
2919.68799383076
20
4314.77099435962
30
0
11
2919.76629383076
21
4314.93029435962
31
0
0
LINE
8
Základní_vrstva
62
1
10
2919.76629383076
20
4314.93029435962
30
0
11
2919.78519383076
21
4315.08419435962
31
0
0
CIRCLE
8
Základní_vrstva
62
1
10
2917.65759383076
20
4314.91139435962
30
0
40
0.179999999999836
0
LINE
8
Základní_vrstva
62
1
10
2916.20251883076
20
4316.47325685962
30
0
11
2916.17011883076
21
4316.62445685962
31
0
0
LINE
8
Základní_vrstva
62
1
10
2916.17011883076
20
4316.62445685962
30
0
11
2916.07291883076
21
4316.77565685962
31
0
0
LINE
8
Základní_vrstva
62
1
10
2916.07291883076
20
4316.77565685962
30
0
11
2915.85691883076
21
4317.11045685962
31
0
0
LINE
8
Základní_vrstva
62
1
10
2915.85691883076
20
4317.11045685962
30
0
11
2915.75971883076
21
4317.47765685962
31
0
0
LINE
8
Základní_vrstva
62
1
10
2915.75971883076
20
4317.47765685962
30
0
11
2915.71651883076
21
4317.65045685962
31
0
0
LINE
8
Základní_vrstva
62
1
10
2915.71651883076
20
4317.65045685962
30
0
11
2915.60851883076
21
4317.80165685962
31
0
0
LINE
8
Základní_vrstva
62
1
10
2915.60851883076
20
4317.80165685962
30
0
11
2915.45191883076
21
4317.91505685962
31
0
0
LINE
8
Základní_vrstva
62
1
10
2915.45191883076
20
4317.91505685962
30
0
11
2915.26291883076
21
4317.97445685962
31
0
0
LINE
8
Základní_vrstva
62
1
10
2915.26291883076
20
4317.97445685962
30
0
11
2914.90651883076
21
4318.07165685962
31
0
0
LINE
8
Základní_vrstva
62
1
10
2914.90651883076
20
4318.07165685962
30
0
11
2914.61491883076
21
4318.27685685962
31
0
0
LINE
8
Základní_vrstva
62
1
10
2914.61491883076
20
4318.27685685962
30
0
11
2914.46101883076
21
4318.38485685962
31
0
0
LINE
8
Základní_vrstva
62
1
10
2914.46101883076
20
4318.38485685962
30
0
11
2914.28011883076
21
4318.42805685962
31
0
0
LINE
8
Základní_vrstva
62
1
10
2914.28011883076
20
4318.42805685962
30
0
11
2914.09381883076
21
4318.40915685962
31
0
0
LINE
8
Základní_vrstva
62
1
10
2914.09381883076
20
4318.40915685962
30
0
11
2913.92371883076
21
4318.33085685962
31
0
0
LINE
8
Základní_vrstva
62
1
10
2913.92371883076
20
4318.33085685962
30
0
11
2913.61051883076
21
4318.17965685962
31
0
0
LINE
8
Základní_vrstva
62
1
10
2913.61051883076
20
4318.17965685962
30
0
11
2913.24331883076
21
4318.14725685962
31
0
0
LINE
8
Základní_vrstva
62
1
10
2913.24331883076
20
4318.14725685962
30
0
11
2913.04351883076
21
4318.13105685962
31
0
0
LINE
8
Základní_vrstva
62
1
10
2913.04351883076
20
4318.13105685962
30
0
11
2912.87611883076
21
4318.06085685962
31
0
0
LINE
8
Základní_vrstva
62
1
10
2912.87611883076
20
4318.06085685962
30
0
11
2912.74381883076
21
4317.93395685962
31
0
0
LINE
8
Základní_vrstva
62
1
10
2912.74381883076
20
4317.93395685962
30
0
11
2912.64931883076
21
4317.74765685962
31
0
0
LINE
8
Základní_vrstva
62
1
10
2912.64931883076
20
4317.74765685962
30
0
11
2912.48731883076
21
4317.41285685962
31
0
0
LINE
8
Základní_vrstva
62
1
10
2912.48731883076
20
4317.41285685962
30
0
11
2912.23891883076
21
4317.16445685962
31
0
0
LINE
8
Základní_vrstva
62
1
10
2912.23891883076
20
4317.16445685962
30
0
11
2912.10391883076
21
4317.01595685962
31
0
0
LINE
8
Základní_vrstva
62
1
10
2912.10391883076
20
4317.01595685962
30
0
11
2912.02291883076
21
4316.82965685962
31
0
0
LINE
8
Základní_vrstva
62
1
10
2912.02291883076
20
4316.82965685962
30
0
11
2912.00401883076
21
4316.63525685962
31
0
0
LINE
8
Základní_vrstva
62
1
10
2912.00401883076
20
4316.63525685962
30
0
11
2912.05531883076
21
4316.46245685962
31
0
0
LINE
8
Základní_vrstva
62
1
10
2912.05531883076
20
4316.46245685962
30
0
11
2912.15251883076
21
4316.12765685962
31
0
0
LINE
8
Základní_vrstva
62
1
10
2912.15251883076
20
4316.12765685962
30
0
11
2912.10931883076
21
4315.77125685962
31
0
0
LINE
8
Základní_vrstva
62
1
10
2912.10931883076
20
4315.77125685962
30
0
11
2912.09041883076
21
4315.58765685962
31
0
0
LINE
8
Základní_vrstva
62
1
10
2912.09041883076
20
4315.58765685962
30
0
11
2912.14171883076
21
4315.40405685962
31
0
0
LINE
8
Základní_vrstva
62
1
10
2912.14171883076
20
4315.40405685962
30
0
11
2912.25241883076
21
4315.24205685962
31
0
0
LINE
8
Základní_vrstva
62
1
10
2912.25241883076
20
4315.24205685962
30
0
11
2912.41171883076
21
4315.12325685962
31
0
0
LINE
8
Základní_vrstva
62
1
10
2912.41171883076
20
4315.12325685962
30
0
11
2912.72491883076
21
4314.90725685962
31
0
0
LINE
8
Základní_vrstva
62
1
10
2912.72491883076
20
4314.90725685962
30
0
11
2912.93011883076
21
4314.61565685962
31
0
0
LINE
8
Základní_vrstva
62
1
10
2912.93011883076
20
4314.61565685962
30
0
11
2913.02731883076
21
4314.46715685962
31
0
0
LINE
8
Základní_vrstva
62
1
10
2913.02731883076
20
4314.46715685962
30
0
11
2913.16771883076
21
4314.36725685962
31
0
0
LINE
8
Základní_vrstva
62
1
10
2913.16771883076
20
4314.36725685962
30
0
11
2913.34051883076
21
4314.32135685962
31
0
0
LINE
8
Základní_vrstva
62
1
10
2913.34051883076
20
4314.32135685962
30
0
11
2913.53491883076
21
4314.33485685962
31
0
0
LINE
8
Základní_vrstva
62
1
10
2913.53491883076
20
4314.33485685962
30
0
11
2913.91291883076
21
4314.36725685962
31
0
0
LINE
8
Základní_vrstva
62
1
10
2913.91291883076
20
4314.36725685962
30
0
11
2914.25851883076
21
4314.27005685962
31
0
0
LINE
8
Základní_vrstva
62
1
10
2914.25851883076
20
4314.27005685962
30
0
11
2914.43941883076
21
4314.21875685962
31
0
0
LINE
8
Základní_vrstva
62
1
10
2914.43941883076
20
4314.21875685962
30
0
11
2914.63651883076
21
4314.23765685962
31
0
0
LINE
8
Základní_vrstva
62
1
10
2914.63651883076
20
4314.23765685962
30
0
11
2914.81471883076
21
4314.31595685962
31
0
0
LINE
8
Základní_vrstva
62
1
10
2914.81471883076
20
4314.31595685962
30
0
11
2914.93891883076
21
4314.44285685962
31
0
0
LINE
8
Základní_vrstva
62
1
10
2914.93891883076
20
4314.44285685962
30
0
11
2915.18731883076
21
4314.70205685962
31
0
0
LINE
8
Základní_vrstva
62
1
10
2915.18731883076
20
4314.70205685962
30
0
11
2915.52211883076
21
4314.85325685962
31
0
0
LINE
8
Základní_vrstva
62
1
10
2915.52211883076
20
4314.85325685962
30
0
11
2915.69221883076
21
4314.93155685962
31
0
0
LINE
8
Základní_vrstva
62
1
10
2915.69221883076
20
4314.93155685962
30
0
11
2915.83531883076
21
4315.08005685962
31
0
0
LINE
8
Základní_vrstva
62
1
10
2915.83531883076
20
4315.08005685962
30
0
11
2915.92711883076
21
4315.26365685962
31
0
0
LINE
8
Základní_vrstva
62
1
10
2915.92711883076
20
4315.26365685962
30
0
11
2915.94331883076
21
4315.44725685962
31
0
0
LINE
8
Základní_vrstva
62
1
10
2915.94331883076
20
4315.44725685962
30
0
11
2915.96491883076
21
4315.81445685962
31
0
0
LINE
8
Základní_vrstva
62
1
10
2915.96491883076
20
4315.81445685962
30
0
11
2916.11611883076
21
4316.16005685962
31
0
0
LINE
8
Základní_vrstva
62
1
10
2916.11611883076
20
4316.16005685962
30
0
11
2916.19441883076
21
4316.31935685962
31
0
0
LINE
8
Základní_vrstva
62
1
10
2916.19441883076
20
4316.31935685962
30
0
11
2916.21331883076
21
4316.47325685962
31
0
0
CIRCLE
8
Základní_vrstva
62
1
10
2914.08571883076
20
4316.30045685962
30
0
40
0.179999999999836
0
LINE
8
Základní_vrstva
62
1
10
2912.20837508076
20
4329.68717560962
30
0
11
2914.58962508076
21
4318.27701935962
31
0
0
TEXT
8
Základní_vrstva
62
1
10
2911.03337508076
20
4335.32701935962
30
0
40
3
50
0
11
2911.03337508076
21
4335.32701935962
31
0
1
5
72
0
73
3
0
LINE
8
Základní_vrstva
62
35
10
2925.37715633076
20
4301.54564435962
30
0
11
2925.28115633076
21
4301.76964435962
31
0
0
LINE
8
Základní_vrstva
62
35
10
2925.28115633076
20
4301.76964435962
30
0
11
2925.12115633076
21
4302.01764435962
31
0
0
LINE
8
Základní_vrstva
62
35
10
2925.12115633076
20
4302.01764435962
30
0
11
2925.04915633076
21
4302.28964435962
31
0
0
LINE
8
Základní_vrstva
62
35
10
2925.04915633076
20
4302.28964435962
30
0
11
2925.01715633076
21
4302.41764435962
31
0
0
LINE
8
Základní_vrstva
62
35
10
2925.01715633076
20
4302.41764435962
30
0
11
2924.93715633076
21
4302.52964435962
31
0
0
LINE
8
Základní_vrstva
62
35
10
2924.93715633076
20
4302.52964435962
30
0
11
2924.68115633076
21
4302.65764435962
31
0
0
LINE
8
Základní_vrstva
62
35
10
2924.68115633076
20
4302.65764435962
30
0
11
2924.41715633076
21
4302.72964435962
31
0
0
LINE
8
Základní_vrstva
62
35
10
2924.41715633076
20
4302.72964435962
30
0
11
2924.20115633076
21
4302.88164435962
31
0
0
LINE
8
Základní_vrstva
62
35
10
2924.20115633076
20
4302.88164435962
30
0
11
2924.08715633076
21
4302.96164435962
31
0
0
LINE
8
Základní_vrstva
62
35
10
2924.08715633076
20
4302.96164435962
30
0
11
2923.95315633076
21
4302.99364435962
31
0
0
LINE
8
Základní_vrstva
62
35
10
2923.95315633076
20
4302.99364435962
30
0
11
2923.68915633076
21
4302.92164435962
31
0
0
LINE
8
Základní_vrstva
62
35
10
2923.68915633076
20
4302.92164435962
30
0
11
2923.45715633076
21
4302.80964435962
31
0
0
LINE
8
Základní_vrstva
62
35
10
2923.45715633076
20
4302.80964435962
30
0
11
2923.18515633076
21
4302.78564435962
31
0
0
LINE
8
Základní_vrstva
62
35
10
2923.18515633076
20
4302.78564435962
30
0
11
2922.91315633076
21
4302.72164435962
31
0
0
LINE
8
Základní_vrstva
62
35
10
2922.91315633076
20
4302.72164435962
30
0
11
2922.74515633076
21
4302.48964435962
31
0
0
LINE
8
Základní_vrstva
62
35
10
2922.74515633076
20
4302.48964435962
30
0
11
2922.62515633076
21
4302.24164435962
31
0
0
LINE
8
Základní_vrstva
62
35
10
2922.62515633076
20
4302.24164435962
30
0
11
2922.44115633076
21
4302.05764435962
31
0
0
LINE
8
Základní_vrstva
62
35
10
2922.44115633076
20
4302.05764435962
30
0
11
2922.28115633076
21
4301.80964435962
31
0
0
LINE
8
Základní_vrstva
62
35
10
2922.28115633076
20
4301.80964435962
30
0
11
2922.26715633076
21
4301.66564435962
31
0
0
LINE
8
Základní_vrstva
62
35
10
2922.26715633076
20
4301.66564435962
30
0
11
2922.30515633076
21
4301.53764435962
31
0
0
LINE
8
Základní_vrstva
62
35
10
2922.30515633076
20
4301.53764435962
30
0
11
2922.37715633076
21
4301.28964435962
31
0
0
LINE
8
Základní_vrstva
62
35
10
2922.37715633076
20
4301.28964435962
30
0
11
2922.34515633076
21
4301.02564435962
31
0
0
LINE
8
Základní_vrstva
62
35
10
2922.34515633076
20
4301.02564435962
30
0
11
2922.33115633076
21
4300.88964435962
31
0
0
LINE
8
Základní_vrstva
62
35
10
2922.33115633076
20
4300.88964435962
30
0
11
2922.36915633076
21
4300.75364435962
31
0
0
LINE
8
Základní_vrstva
62
35
10
2922.36915633076
20
4300.75364435962
30
0
11
2922.56915633076
21
4300.54564435962
31
0
0
LINE
8
Základní_vrstva
62
35
10
2922.56915633076
20
4300.54564435962
30
0
11
2922.80115633076
21
4300.38564435962
31
0
0
LINE
8
Základní_vrstva
62
35
10
2922.80115633076
20
4300.38564435962
30
0
11
2922.95315633076
21
4300.16964435962
31
0
0
LINE
8
Základní_vrstva
62
35
10
2922.95315633076
20
4300.16964435962
30
0
11
2923.12915633076
21
4299.98564435962
31
0
0
LINE
8
Základní_vrstva
62
35
10
2923.12915633076
20
4299.98564435962
30
0
11
2923.40115633076
21
4299.96164435962
31
0
0
LINE
8
Základní_vrstva
62
35
10
2923.40115633076
20
4299.96164435962
30
0
11
2923.68115633076
21
4299.98564435962
31
0
0
LINE
8
Základní_vrstva
62
35
10
2923.68115633076
20
4299.98564435962
30
0
11
2923.93715633076
21
4299.91364435962
31
0
0
LINE
8
Základní_vrstva
62
35
10
2923.93715633076
20
4299.91364435962
30
0
11
2924.07115633076
21
4299.87564435962
31
0
0
LINE
8
Základní_vrstva
62
35
10
2924.07115633076
20
4299.87564435962
30
0
11
2924.21715633076
21
4299.88964435962
31
0
0
LINE
8
Základní_vrstva
62
35
10
2924.21715633076
20
4299.88964435962
30
0
11
2924.34915633076
21
4299.94764435962
31
0
0
LINE
8
Základní_vrstva
62
35
10
2924.34915633076
20
4299.94764435962
30
0
11
2924.44115633076
21
4300.04164435962
31
0
0
LINE
8
Základní_vrstva
62
35
10
2924.44115633076
20
4300.04164435962
30
0
11
2924.62515633076
21
4300.23364435962
31
0
0
LINE
8
Základní_vrstva
62
35
10
2924.62515633076
20
4300.23364435962
30
0
11
2924.87315633076
21
4300.34564435962
31
0
0
LINE
8
Základní_vrstva
62
35
10
2924.87315633076
20
4300.34564435962
30
0
11
2924.99915633076
21
4300.40364435962
31
0
0
LINE
8
Základní_vrstva
62
35
10
2924.99915633076
20
4300.40364435962
30
0
11
2925.10515633076
21
4300.51364435962
31
0
0
LINE
8
Základní_vrstva
62
35
10
2925.10515633076
20
4300.51364435962
30
0
11
2925.17315633076
21
4300.64964435962
31
0
0
LINE
8
Základní_vrstva
62
35
10
2925.17315633076
20
4300.64964435962
30
0
11
2925.18515633076
21
4300.78564435962
31
0
0
LINE
8
Základní_vrstva
62
35
10
2925.18515633076
20
4300.78564435962
30
0
11
2925.20115633076
21
4301.05764435962
31
0
0
LINE
8
Základní_vrstva
62
35
10
2925.20115633076
20
4301.05764435962
30
0
11
2925.31315633076
21
4301.31364435962
31
0
0
LINE
8
Základní_vrstva
62
35
10
2925.31315633076
20
4301.31364435962
30
0
11
2925.38515633076
21
4301.54564435962
31
0
0
CIRCLE
8
Základní_vrstva
62
35
10
2923.80915633076
20
4301.41764435962
30
0
40
0.133333333333212
0
LINE
8
Základní_vrstva
62
35
10
2923.09512508076
20
4303.43080060962
30
0
11
2922.99912508076
21
4303.65480060962
31
0
0
LINE
8
Základní_vrstva
62
35
10
2922.99912508076
20
4303.65480060962
30
0
11
2922.83912508076
21
4303.90280060962
31
0
0
LINE
8
Základní_vrstva
62
35
10
2922.83912508076
20
4303.90280060962
30
0
11
2922.76712508076
21
4304.17480060962
31
0
0
LINE
8
Základní_vrstva
62
35
10
2922.76712508076
20
4304.17480060962
30
0
11
2922.73512508076
21
4304.30280060962
31
0
0
LINE
8
Základní_vrstva
62
35
10
2922.73512508076
20
4304.30280060962
30
0
11
2922.65512508076
21
4304.41480060962
31
0
0
LINE
8
Základní_vrstva
62
35
10
2922.65512508076
20
4304.41480060962
30
0
11
2922.39912508076
21
4304.54280060962
31
0
0
LINE
8
Základní_vrstva
62
35
10
2922.39912508076
20
4304.54280060962
30
0
11
2922.13512508076
21
4304.61480060962
31
0
0
LINE
8
Základní_vrstva
62
35
10
2922.13512508076
20
4304.61480060962
30
0
11
2921.91912508076
21
4304.76680060962
31
0
0
LINE
8
Základní_vrstva
62
35
10
2921.91912508076
20
4304.76680060962
30
0
11
2921.80512508076
21
4304.84680060962
31
0
0
LINE
8
Základní_vrstva
62
35
10
2921.80512508076
20
4304.84680060962
30
0
11
2921.67112508076
21
4304.87880060962
31
0
0
LINE
8
Základní_vrstva
62
35
10
2921.67112508076
20
4304.87880060962
30
0
11
2921.40712508076
21
4304.80680060962
31
0
0
LINE
8
Základní_vrstva
62
35
10
2921.40712508076
20
4304.80680060962
30
0
11
2921.17512508076
21
4304.69480060962
31
0
0
LINE
8
Základní_vrstva
62
35
10
2921.17512508076
20
4304.69480060962
30
0
11
2920.90312508076
21
4304.67080060962
31
0
0
LINE
8
Základní_vrstva
62
35
10
2920.90312508076
20
4304.67080060962
30
0
11
2920.63112508076
21
4304.60680060962
31
0
0
LINE
8
Základní_vrstva
62
35
10
2920.63112508076
20
4304.60680060962
30
0
11
2920.46312508076
21
4304.37480060962
31
0
0
LINE
8
Základní_vrstva
62
35
10
2920.46312508076
20
4304.37480060962
30
0
11
2920.34312508076
21
4304.12680060962
31
0
0
LINE
8
Základní_vrstva
62
35
10
2920.34312508076
20
4304.12680060962
30
0
11
2920.15912508076
21
4303.94280060962
31
0
0
LINE
8
Základní_vrstva
62
35
10
2920.15912508076
20
4303.94280060962
30
0
11
2919.99912508076
21
4303.69480060962
31
0
0
LINE
8
Základní_vrstva
62
35
10
2919.99912508076
20
4303.69480060962
30
0
11
2919.98512508076
21
4303.55080060962
31
0
0
LINE
8
Základní_vrstva
62
35
10
2919.98512508076
20
4303.55080060962
30
0
11
2920.02312508076
21
4303.42280060962
31
0
0
LINE
8
Základní_vrstva
62
35
10
2920.02312508076
20
4303.42280060962
30
0
11
2920.09512508076
21
4303.17480060962
31
0
0
LINE
8
Základní_vrstva
62
35
10
2920.09512508076
20
4303.17480060962
30
0
11
2920.06312508076
21
4302.91080060962
31
0
0
LINE
8
Základní_vrstva
62
35
10
2920.06312508076
20
4302.91080060962
30
0
11
2920.04912508076
21
4302.77480060962
31
0
0
LINE
8
Základní_vrstva
62
35
10
2920.04912508076
20
4302.77480060962
30
0
11
2920.08712508076
21
4302.63880060962
31
0
0
LINE
8
Základní_vrstva
62
35
10
2920.08712508076
20
4302.63880060962
30
0
11
2920.28712508076
21
4302.43080060962
31
0
0
LINE
8
Základní_vrstva
62
35
10
2920.28712508076
20
4302.43080060962
30
0
11
2920.51912508076
21
4302.27080060962
31
0
0
LINE
8
Základní_vrstva
62
35
10
2920.51912508076
20
4302.27080060962
30
0
11
2920.67112508076
21
4302.05480060962
31
0
0
LINE
8
Základní_vrstva
62
35
10
2920.67112508076
20
4302.05480060962
30
0
11
2920.84712508076
21
4301.87080060962
31
0
0
LINE
8
Základní_vrstva
62
35
10
2920.84712508076
20
4301.87080060962
30
0
11
2921.11912508076
21
4301.84680060962
31
0
0
LINE
8
Základní_vrstva
62
35
10
2921.11912508076
20
4301.84680060962
30
0
11
2921.39912508076
21
4301.87080060962
31
0
0
LINE
8
Základní_vrstva
62
35
10
2921.39912508076
20
4301.87080060962
30
0
11
2921.65512508076
21
4301.79880060962
31
0
0
LINE
8
Základní_vrstva
62
35
10
2921.65512508076
20
4301.79880060962
30
0
11
2921.78912508076
21
4301.76080060962
31
0
0
LINE
8
Základní_vrstva
62
35
10
2921.78912508076
20
4301.76080060962
30
0
11
2921.93512508076
21
4301.77480060962
31
0
0
LINE
8
Základní_vrstva
62
35
10
2921.93512508076
20
4301.77480060962
30
0
11
2922.06712508076
21
4301.83280060962
31
0
0
LINE
8
Základní_vrstva
62
35
10
2922.06712508076
20
4301.83280060962
30
0
11
2922.15912508076
21
4301.92680060962
31
0
0
LINE
8
Základní_vrstva
62
35
10
2922.15912508076
20
4301.92680060962
30
0
11
2922.34312508076
21
4302.11880060962
31
0
0
LINE
8
Základní_vrstva
62
35
10
2922.34312508076
20
4302.11880060962
30
0
11
2922.59112508076
21
4302.23080060962
31
0
0
LINE
8
Základní_vrstva
62
35
10
2922.59112508076
20
4302.23080060962
30
0
11
2922.71712508076
21
4302.28880060962
31
0
0
LINE
8
Základní_vrstva
62
35
10
2922.71712508076
20
4302.28880060962
30
0
11
2922.82312508076
21
4302.39880060962
31
0
0
LINE
8
Základní_vrstva
62
35
10
2922.82312508076
20
4302.39880060962
30
0
11
2922.89112508076
21
4302.53480060962
31
0
0
LINE
8
Základní_vrstva
62
35
10
2922.89112508076
20
4302.53480060962
30
0
11
2922.90312508076
21
4302.67080060962
31
0
0
LINE
8
Základní_vrstva
62
35
10
2922.90312508076
20
4302.67080060962
30
0
11
2922.91912508076
21
4302.94280060962
31
0
0
LINE
8
Základní_vrstva
62
35
10
2922.91912508076
20
4302.94280060962
30
0
11
2923.03112508076
21
4303.19880060962
31
0
0
LINE
8
Základní_vrstva
62
35
10
2923.03112508076
20
4303.19880060962
30
0
11
2923.10312508076
21
4303.43080060962
31
0
0
CIRCLE
8
Základní_vrstva
62
35
10
2921.52712508076
20
4303.30280060962
30
0
40
0.133333333333212
0
LINE
8
Základní_vrstva
62
35
10
2919.62246883076
20
4306.60580060962
30
0
11
2919.52646883076
21
4306.82980060962
31
0
0
LINE
8
Základní_vrstva
62
35
10
2919.52646883076
20
4306.82980060962
30
0
11
2919.36646883076
21
4307.07780060962
31
0
0
LINE
8
Základní_vrstva
62
35
10
2919.36646883076
20
4307.07780060962
30
0
11
2919.29446883076
21
4307.34980060962
31
0
0
LINE
8
Základní_vrstva
62
35
10
2919.29446883076
20
4307.34980060962
30
0
11
2919.26246883076
21
4307.47780060962
31
0
0
LINE
8
Základní_vrstva
62
35
10
2919.26246883076
20
4307.47780060962
30
0
11
2919.18246883076
21
4307.58980060962
31
0
0
LINE
8
Základní_vrstva
62
35
10
2919.18246883076
20
4307.58980060962
30
0
11
2918.92646883076
21
4307.71780060962
31
0
0
LINE
8
Základní_vrstva
62
35
10
2918.92646883076
20
4307.71780060962
30
0
11
2918.66246883076
21
4307.78980060962
31
0
0
LINE
8
Základní_vrstva
62
35
10
2918.66246883076
20
4307.78980060962
30
0
11
2918.44646883076
21
4307.94180060962
31
0
0
LINE
8
Základní_vrstva
62
35
10
2918.44646883076
20
4307.94180060962
30
0
11
2918.33246883076
21
4308.02180060962
31
0
0
LINE
8
Základní_vrstva
62
35
10
2918.33246883076
20
4308.02180060962
30
0
11
2918.19846883076
21
4308.05380060962
31
0
0
LINE
8
Základní_vrstva
62
35
10
2918.19846883076
20
4308.05380060962
30
0
11
2917.93446883076
21
4307.98180060962
31
0
0
LINE
8
Základní_vrstva
62
35
10
2917.93446883076
20
4307.98180060962
30
0
11
2917.70246883076
21
4307.86980060962
31
0
0
LINE
8
Základní_vrstva
62
35
10
2917.70246883076
20
4307.86980060962
30
0
11
2917.43046883076
21
4307.84580060962
31
0
0
LINE
8
Základní_vrstva
62
35
10
2917.43046883076
20
4307.84580060962
30
0
11
2917.15846883076
21
4307.78180060962
31
0
0
LINE
8
Základní_vrstva
62
35
10
2917.15846883076
20
4307.78180060962
30
0
11
2916.99046883076
21
4307.54980060962
31
0
0
LINE
8
Základní_vrstva
62
35
10
2916.99046883076
20
4307.54980060962
30
0
11
2916.87046883076
21
4307.30180060962
31
0
0
LINE
8
Základní_vrstva
62
35
10
2916.87046883076
20
4307.30180060962
30
0
11
2916.68646883076
21
4307.11780060962
31
0
0
LINE
8
Základní_vrstva
62
35
10
2916.68646883076
20
4307.11780060962
30
0
11
2916.52646883076
21
4306.86980060962
31
0
0
LINE
8
Základní_vrstva
62
35
10
2916.52646883076
20
4306.86980060962
30
0
11
2916.51246883076
21
4306.72580060962
31
0
0
LINE
8
Základní_vrstva
62
35
10
2916.51246883076
20
4306.72580060962
30
0
11
2916.55046883076
21
4306.59780060962
31
0
0
LINE
8
Základní_vrstva
62
35
10
2916.55046883076
20
4306.59780060962
30
0
11
2916.62246883076
21
4306.34980060962
31
0
0
LINE
8
Základní_vrstva
62
35
10
2916.62246883076
20
4306.34980060962
30
0
11
2916.59046883076
21
4306.08580060962
31
0
0
LINE
8
Základní_vrstva
62
35
10
2916.59046883076
20
4306.08580060962
30
0
11
2916.57646883076
21
4305.94980060962
31
0
0
LINE
8
Základní_vrstva
62
35
10
2916.57646883076
20
4305.94980060962
30
0
11
2916.61446883076
21
4305.81380060962
31
0
0
LINE
8
Základní_vrstva
62
35
10
2916.61446883076
20
4305.81380060962
30
0
11
2916.81446883076
21
4305.60580060962
31
0
0
LINE
8
Základní_vrstva
62
35
10
2916.81446883076
20
4305.60580060962
30
0
11
2917.04646883076
21
4305.44580060962
31
0
0
LINE
8
Základní_vrstva
62
35
10
2917.04646883076
20
4305.44580060962
30
0
11
2917.19846883076
21
4305.22980060962
31
0
0
LINE
8
Základní_vrstva
62
35
10
2917.19846883076
20
4305.22980060962
30
0
11
2917.37446883076
21
4305.04580060962
31
0
0
LINE
8
Základní_vrstva
62
35
10
2917.37446883076
20
4305.04580060962
30
0
11
2917.64646883076
21
4305.02180060962
31
0
0
LINE
8
Základní_vrstva
62
35
10
2917.64646883076
20
4305.02180060962
30
0
11
2917.92646883076
21
4305.04580060962
31
0
0
LINE
8
Základní_vrstva
62
35
10
2917.92646883076
20
4305.04580060962
30
0
11
2918.18246883076
21
4304.97380060962
31
0
0
LINE
8
Základní_vrstva
62
35
10
2918.18246883076
20
4304.97380060962
30
0
11
2918.31646883076
21
4304.93580060962
31
0
0
LINE
8
Základní_vrstva
62
35
10
2918.31646883076
20
4304.93580060962
30
0
11
2918.46246883076
21
4304.94980060962
31
0
0
LINE
8
Základní_vrstva
62
35
10
2918.46246883076
20
4304.94980060962
30
0
11
2918.59446883076
21
4305.00780060962
31
0
0
LINE
8
Základní_vrstva
62
35
10
2918.59446883076
20
4305.00780060962
30
0
11
2918.68646883076
21
4305.10180060962
31
0
0
LINE
8
Základní_vrstva
62
35
10
2918.68646883076
20
4305.10180060962
30
0
11
2918.87046883076
21
4305.29380060962
31
0
0
LINE
8
Základní_vrstva
62
35
10
2918.87046883076
20
4305.29380060962
30
0
11
2919.11846883076
21
4305.40580060962
31
0
0
LINE
8
Základní_vrstva
62
35
10
2919.11846883076
20
4305.40580060962
30
0
11
2919.24446883076
21
4305.46380060962
31
0
0
LINE
8
Základní_vrstva
62
35
10
2919.24446883076
20
4305.46380060962
30
0
11
2919.35046883076
21
4305.57380060962
31
0
0
LINE
8
Základní_vrstva
62
35
10
2919.35046883076
20
4305.57380060962
30
0
11
2919.41846883076
21
4305.70980060962
31
0
0
LINE
8
Základní_vrstva
62
35
10
2919.41846883076
20
4305.70980060962
30
0
11
2919.43046883076
21
4305.84580060962
31
0
0
LINE
8
Základní_vrstva
62
35
10
2919.43046883076
20
4305.84580060962
30
0
11
2919.44646883076
21
4306.11780060962
31
0
0
LINE
8
Základní_vrstva
62
35
10
2919.44646883076
20
4306.11780060962
30
0
11
2919.55846883076
21
4306.37380060962
31
0
0
LINE
8
Základní_vrstva
62
35
10
2919.55846883076
20
4306.37380060962
30
0
11
2919.63046883076
21
4306.60580060962
31
0
0
CIRCLE
8
Základní_vrstva
62
35
10
2918.05446883076
20
4306.47780060962
30
0
40
0.133333333333212
0
LINE
8
Základní_vrstva
62
35
10
2917.14200008076
20
4308.49095685962
30
0
11
2917.04600008076
21
4308.71495685962
31
0
0
LINE
8
Základní_vrstva
62
35
10
2917.04600008076
20
4308.71495685962
30
0
11
2916.88600008076
21
4308.96295685962
31
0
0
LINE
8
Základní_vrstva
62
35
10
2916.88600008076
20
4308.96295685962
30
0
11
2916.81400008076
21
4309.23495685962
31
0
0
LINE
8
Základní_vrstva
62
35
10
2916.81400008076
20
4309.23495685962
30
0
11
2916.78200008076
21
4309.36295685962
31
0
0
LINE
8
Základní_vrstva
62
35
10
2916.78200008076
20
4309.36295685962
30
0
11
2916.70200008076
21
4309.47495685962
31
0
0
LINE
8
Základní_vrstva
62
35
10
2916.70200008076
20
4309.47495685962
30
0
11
2916.44600008076
21
4309.60295685962
31
0
0
LINE
8
Základní_vrstva
62
35
10
2916.44600008076
20
4309.60295685962
30
0
11
2916.18200008076
21
4309.67495685962
31
0
0
LINE
8
Základní_vrstva
62
35
10
2916.18200008076
20
4309.67495685962
30
0
11
2915.96600008076
21
4309.82695685962
31
0
0
LINE
8
Základní_vrstva
62
35
10
2915.96600008076
20
4309.82695685962
30
0
11
2915.85200008076
21
4309.90695685962
31
0
0
LINE
8
Základní_vrstva
62
35
10
2915.85200008076
20
4309.90695685962
30
0
11
2915.71800008076
21
4309.93895685962
31
0
0
LINE
8
Základní_vrstva
62
35
10
2915.71800008076
20
4309.93895685962
30
0
11
2915.45400008076
21
4309.86695685962
31
0
0
LINE
8
Základní_vrstva
62
35
10
2915.45400008076
20
4309.86695685962
30
0
11
2915.22200008076
21
4309.75495685962
31
0
0
LINE
8
Základní_vrstva
62
35
10
2915.22200008076
20
4309.75495685962
30
0
11
2914.95000008076
21
4309.73095685962
31
0
0
LINE
8
Základní_vrstva
62
35
10
2914.95000008076
20
4309.73095685962
30
0
11
2914.67800008076
21
4309.66695685962
31
0
0
LINE
8
Základní_vrstva
62
35
10
2914.67800008076
20
4309.66695685962
30
0
11
2914.51000008076
21
4309.43495685962
31
0
0
LINE
8
Základní_vrstva
62
35
10
2914.51000008076
20
4309.43495685962
30
0
11
2914.39000008076
21
4309.18695685962
31
0
0
LINE
8
Základní_vrstva
62
35
10
2914.39000008076
20
4309.18695685962
30
0
11
2914.20600008076
21
4309.00295685962
31
0
0
LINE
8
Základní_vrstva
62
35
10
2914.20600008076
20
4309.00295685962
30
0
11
2914.04600008076
21
4308.75495685962
31
0
0
LINE
8
Základní_vrstva
62
35
10
2914.04600008076
20
4308.75495685962
30
0
11
2914.03200008076
21
4308.61095685962
31
0
0
LINE
8
Základní_vrstva
62
35
10
2914.03200008076
20
4308.61095685962
30
0
11
2914.07000008076
21
4308.48295685962
31
0
0
LINE
8
Základní_vrstva
62
35
10
2914.07000008076
20
4308.48295685962
30
0
11
2914.14200008076
21
4308.23495685962
31
0
0
LINE
8
Základní_vrstva
62
35
10
2914.14200008076
20
4308.23495685962
30
0
11
2914.11000008076
21
4307.97095685962
31
0
0
LINE
8
Základní_vrstva
62
35
10
2914.11000008076
20
4307.97095685962
30
0
11
2914.09600008076
21
4307.83495685962
31
0
0
LINE
8
Základní_vrstva
62
35
10
2914.09600008076
20
4307.83495685962
30
0
11
2914.13400008076
21
4307.69895685962
31
0
0
LINE
8
Základní_vrstva
62
35
10
2914.13400008076
20
4307.69895685962
30
0
11
2914.33400008076
21
4307.49095685962
31
0
0
LINE
8
Základní_vrstva
62
35
10
2914.33400008076
20
4307.49095685962
30
0
11
2914.56600008076
21
4307.33095685962
31
0
0
LINE
8
Základní_vrstva
62
35
10
2914.56600008076
20
4307.33095685962
30
0
11
2914.71800008076
21
4307.11495685962
31
0
0
LINE
8
Základní_vrstva
62
35
10
2914.71800008076
20
4307.11495685962
30
0
11
2914.89400008076
21
4306.93095685962
31
0
0
LINE
8
Základní_vrstva
62
35
10
2914.89400008076
20
4306.93095685962
30
0
11
2915.16600008076
21
4306.90695685962
31
0
0
LINE
8
Základní_vrstva
62
35
10
2915.16600008076
20
4306.90695685962
30
0
11
2915.44600008076
21
4306.93095685962
31
0
0
LINE
8
Základní_vrstva
62
35
10
2915.44600008076
20
4306.93095685962
30
0
11
2915.70200008076
21
4306.85895685962
31
0
0
LINE
8
Základní_vrstva
62
35
10
2915.70200008076
20
4306.85895685962
30
0
11
2915.83600008076
21
4306.82095685962
31
0
0
LINE
8
Základní_vrstva
62
35
10
2915.83600008076
20
4306.82095685962
30
0
11
2915.98200008076
21
4306.83495685962
31
0
0
LINE
8
Základní_vrstva
62
35
10
2915.98200008076
20
4306.83495685962
30
0
11
2916.11400008076
21
4306.89295685962
31
0
0
LINE
8
Základní_vrstva
62
35
10
2916.11400008076
20
4306.89295685962
30
0
11
2916.20600008076
21
4306.98695685962
31
0
0
LINE
8
Základní_vrstva
62
35
10
2916.20600008076
20
4306.98695685962
30
0
11
2916.39000008076
21
4307.17895685962
31
0
0
LINE
8
Základní_vrstva
62
35
10
2916.39000008076
20
4307.17895685962
30
0
11
2916.63800008076
21
4307.29095685962
31
0
0
LINE
8
Základní_vrstva
62
35
10
2916.63800008076
20
4307.29095685962
30
0
11
2916.76400008076
21
4307.34895685962
31
0
0
LINE
8
Základní_vrstva
62
35
10
2916.76400008076
20
4307.34895685962
30
0
11
2916.87000008076
21
4307.45895685962
31
0
0
LINE
8
Základní_vrstva
62
35
10
2916.87000008076
20
4307.45895685962
30
0
11
2916.93800008076
21
4307.59495685962
31
0
0
LINE
8
Základní_vrstva
62
35
10
2916.93800008076
20
4307.59495685962
30
0
11
2916.95000008076
21
4307.73095685962
31
0
0
LINE
8
Základní_vrstva
62
35
10
2916.95000008076
20
4307.73095685962
30
0
11
2916.96600008076
21
4308.00295685962
31
0
0
LINE
8
Základní_vrstva
62
35
10
2916.96600008076
20
4308.00295685962
30
0
11
2917.07800008076
21
4308.25895685962
31
0
0
LINE
8
Základní_vrstva
62
35
10
2917.07800008076
20
4308.25895685962
30
0
11
2917.15000008076
21
4308.49095685962
31
0
0
CIRCLE
8
Základní_vrstva
62
35
10
2915.57400008076
20
4308.36295685962
30
0
40
0.133333333333212
0
LINE
8
Základní_vrstva
62
35
10
2912.67715633076
20
4312.06283185962
30
0
11
2912.58115633076
21
4312.28683185962
31
0
0
LINE
8
Základní_vrstva
62
35
10
2912.58115633076
20
4312.28683185962
30
0
11
2912.42115633076
21
4312.53483185962
31
0
0
LINE
8
Základní_vrstva
62
35
10
2912.42115633076
20
4312.53483185962
30
0
11
2912.34915633076
21
4312.80683185962
31
0
0
LINE
8
Základní_vrstva
62
35
10
2912.34915633076
20
4312.80683185962
30
0
11
2912.31715633076
21
4312.93483185962
31
0
0
LINE
8
Základní_vrstva
62
35
10
2912.31715633076
20
4312.93483185962
30
0
11
2912.23715633076
21
4313.04683185962
31
0
0
LINE
8
Základní_vrstva
62
35
10
2912.23715633076
20
4313.04683185962
30
0
11
2911.98115633076
21
4313.17483185962
31
0
0
LINE
8
Základní_vrstva
62
35
10
2911.98115633076
20
4313.17483185962
30
0
11
2911.71715633076
21
4313.24683185962
31
0
0
LINE
8
Základní_vrstva
62
35
10
2911.71715633076
20
4313.24683185962
30
0
11
2911.50115633076
21
4313.39883185962
31
0
0
LINE
8
Základní_vrstva
62
35
10
2911.50115633076
20
4313.39883185962
30
0
11
2911.38715633076
21
4313.47883185962
31
0
0
LINE
8
Základní_vrstva
62
35
10
2911.38715633076
20
4313.47883185962
30
0
11
2911.25315633076
21
4313.51083185962
31
0
0
LINE
8
Základní_vrstva
62
35
10
2911.25315633076
20
4313.51083185962
30
0
11
2910.98915633076
21
4313.43883185962
31
0
0
LINE
8
Základní_vrstva
62
35
10
2910.98915633076
20
4313.43883185962
30
0
11
2910.75715633076
21
4313.32683185962
31
0
0
LINE
8
Základní_vrstva
62
35
10
2910.75715633076
20
4313.32683185962
30
0
11
2910.48515633076
21
4313.30283185962
31
0
0
LINE
8
Základní_vrstva
62
35
10
2910.48515633076
20
4313.30283185962
30
0
11
2910.21315633076
21
4313.23883185962
31
0
0
LINE
8
Základní_vrstva
62
35
10
2910.21315633076
20
4313.23883185962
30
0
11
2910.04515633076
21
4313.00683185962
31
0
0
LINE
8
Základní_vrstva
62
35
10
2910.04515633076
20
4313.00683185962
30
0
11
2909.92515633076
21
4312.75883185962
31
0
0
LINE
8
Základní_vrstva
62
35
10
2909.92515633076
20
4312.75883185962
30
0
11
2909.74115633076
21
4312.57483185962
31
0
0
LINE
8
Základní_vrstva
62
35
10
2909.74115633076
20
4312.57483185962
30
0
11
2909.58115633076
21
4312.32683185962
31
0
0
LINE
8
Základní_vrstva
62
35
10
2909.58115633076
20
4312.32683185962
30
0
11
2909.56715633076
21
4312.18283185962
31
0
0
LINE
8
Základní_vrstva
62
35
10
2909.56715633076
20
4312.18283185962
30
0
11
2909.60515633076
21
4312.05483185962
31
0
0
LINE
8
Základní_vrstva
62
35
10
2909.60515633076
20
4312.05483185962
30
0
11
2909.67715633076
21
4311.80683185962
31
0
0
LINE
8
Základní_vrstva
62
35
10
2909.67715633076
20
4311.80683185962
30
0
11
2909.64515633076
21
4311.54283185962
31
0
0
LINE
8
Základní_vrstva
62
35
10
2909.64515633076
20
4311.54283185962
30
0
11
2909.63115633076
21
4311.40683185962
31
0
0
LINE
8
Základní_vrstva
62
35
10
2909.63115633076
20
4311.40683185962
30
0
11
2909.66915633076
21
4311.27083185962
31
0
0
LINE
8
Základní_vrstva
62
35
10
2909.66915633076
20
4311.27083185962
30
0
11
2909.86915633076
21
4311.06283185962
31
0
0
LINE
8
Základní_vrstva
62
35
10
2909.86915633076
20
4311.06283185962
30
0
11
2910.10115633076
21
4310.90283185962
31
0
0
LINE
8
Základní_vrstva
62
35
10
2910.10115633076
20
4310.90283185962
30
0
11
2910.25315633076
21
4310.68683185962
31
0
0
LINE
8
Základní_vrstva
62
35
10
2910.25315633076
20
4310.68683185962
30
0
11
2910.42915633076
21
4310.50283185962
31
0
0
LINE
8
Základní_vrstva
62
35
10
2910.42915633076
20
4310.50283185962
30
0
11
2910.70115633076
21
4310.47883185962
31
0
0
LINE
8
Základní_vrstva
62
35
10
2910.70115633076
20
4310.47883185962
30
0
11
2910.98115633076
21
4310.50283185962
31
0
0
LINE
8
Základní_vrstva
62
35
10
2910.98115633076
20
4310.50283185962
30
0
11
2911.23715633076
21
4310.43083185962
31
0
0
LINE
8
Základní_vrstva
62
35
10
2911.23715633076
20
4310.43083185962
30
0
11
2911.37115633076
21
4310.39283185962
31
0
0
LINE
8
Základní_vrstva
62
35
10
2911.37115633076
20
4310.39283185962
30
0
11
2911.51715633076
21
4310.40683185962
31
0
0
LINE
8
Základní_vrstva
62
35
10
2911.51715633076
20
4310.40683185962
30
0
11
2911.64915633076
21
4310.46483185962
31
0
0
LINE
8
Základní_vrstva
62
35
10
2911.64915633076
20
4310.46483185962
30
0
11
2911.74115633076
21
4310.55883185962
31
0
0
LINE
8
Základní_vrstva
62
35
10
2911.74115633076
20
4310.55883185962
30
0
11
2911.92515633076
21
4310.75083185962
31
0
0
LINE
8
Základní_vrstva
62
35
10
2911.92515633076
20
4310.75083185962
30
0
11
2912.17315633076
21
4310.86283185962
31
0
0
LINE
8
Základní_vrstva
62
35
10
2912.17315633076
20
4310.86283185962
30
0
11
2912.29915633076
21
4310.92083185962
31
0
0
LINE
8
Základní_vrstva
62
35
10
2912.29915633076
20
4310.92083185962
30
0
11
2912.40515633076
21
4311.03083185962
31
0
0
LINE
8
Základní_vrstva
62
35
10
2912.40515633076
20
4311.03083185962
30
0
11
2912.47315633076
21
4311.16683185962
31
0
0
LINE
8
Základní_vrstva
62
35
10
2912.47315633076
20
4311.16683185962
30
0
11
2912.48515633076
21
4311.30283185962
31
0
0
LINE
8
Základní_vrstva
62
35
10
2912.48515633076
20
4311.30283185962
30
0
11
2912.50115633076
21
4311.57483185962
31
0
0
LINE
8
Základní_vrstva
62
35
10
2912.50115633076
20
4311.57483185962
30
0
11
2912.61315633076
21
4311.83083185962
31
0
0
LINE
8
Základní_vrstva
62
35
10
2912.61315633076
20
4311.83083185962
30
0
11
2912.68515633076
21
4312.06283185962
31
0
0
CIRCLE
8
Základní_vrstva
62
35
10
2911.10915633076
20
4311.93483185962
30
0
40
0.133333333333212
0
LINE
8
Základní_vrstva
62
35
10
2914.66934383076
20
4310.56673810962
30
0
11
2914.57334383076
21
4310.79073810962
31
0
0
LINE
8
Základní_vrstva
62
35
10
2914.57334383076
20
4310.79073810962
30
0
11
2914.41334383076
21
4311.03873810962
31
0
0
LINE
8
Základní_vrstva
62
35
10
2914.41334383076
20
4311.03873810962
30
0
11
2914.34134383076
21
4311.31073810962
31
0
0
LINE
8
Základní_vrstva
62
35
10
2914.34134383076
20
4311.31073810962
30
0
11
2914.30934383076
21
4311.43873810962
31
0
0
LINE
8
Základní_vrstva
62
35
10
2914.30934383076
20
4311.43873810962
30
0
11
2914.22934383076
21
4311.55073810962
31
0
0
LINE
8
Základní_vrstva
62
35
10
2914.22934383076
20
4311.55073810962
30
0
11
2913.97334383076
21
4311.67873810962
31
0
0
LINE
8
Základní_vrstva
62
35
10
2913.97334383076
20
4311.67873810962
30
0
11
2913.70934383076
21
4311.75073810962
31
0
0
LINE
8
Základní_vrstva
62
35
10
2913.70934383076
20
4311.75073810962
30
0
11
2913.49334383076
21
4311.90273810962
31
0
0
LINE
8
Základní_vrstva
62
35
10
2913.49334383076
20
4311.90273810962
30
0
11
2913.37934383076
21
4311.98273810962
31
0
0
LINE
8
Základní_vrstva
62
35
10
2913.37934383076
20
4311.98273810962
30
0
11
2913.24534383076
21
4312.01473810962
31
0
0
LINE
8
Základní_vrstva
62
35
10
2913.24534383076
20
4312.01473810962
30
0
11
2912.98134383076
21
4311.94273810962
31
0
0
LINE
8
Základní_vrstva
62
35
10
2912.98134383076
20
4311.94273810962
30
0
11
2912.74934383076
21
4311.83073810962
31
0
0
LINE
8
Základní_vrstva
62
35
10
2912.74934383076
20
4311.83073810962
30
0
11
2912.47734383076
21
4311.80673810962
31
0
0
LINE
8
Základní_vrstva
62
35
10
2912.47734383076
20
4311.80673810962
30
0
11
2912.20534383076
21
4311.74273810962
31
0
0
LINE
8
Základní_vrstva
62
35
10
2912.20534383076
20
4311.74273810962
30
0
11
2912.03734383076
21
4311.51073810962
31
0
0
LINE
8
Základní_vrstva
62
35
10
2912.03734383076
20
4311.51073810962
30
0
11
2911.91734383076
21
4311.26273810962
31
0
0
LINE
8
Základní_vrstva
62
35
10
2911.91734383076
20
4311.26273810962
30
0
11
2911.73334383076
21
4311.07873810962
31
0
0
LINE
8
Základní_vrstva
62
35
10
2911.73334383076
20
4311.07873810962
30
0
11
2911.57334383076
21
4310.83073810962
31
0
0
LINE
8
Základní_vrstva
62
35
10
2911.57334383076
20
4310.83073810962
30
0
11
2911.55934383076
21
4310.68673810962
31
0
0
LINE
8
Základní_vrstva
62
35
10
2911.55934383076
20
4310.68673810962
30
0
11
2911.59734383076
21
4310.55873810962
31
0
0
LINE
8
Základní_vrstva
62
35
10
2911.59734383076
20
4310.55873810962
30
0
11
2911.66934383076
21
4310.31073810962
31
0
0
LINE
8
Základní_vrstva
62
35
10
2911.66934383076
20
4310.31073810962
30
0
11
2911.63734383076
21
4310.04673810962
31
0
0
LINE
8
Základní_vrstva
62
35
10
2911.63734383076
20
4310.04673810962
30
0
11
2911.62334383076
21
4309.91073810962
31
0
0
LINE
8
Základní_vrstva
62
35
10
2911.62334383076
20
4309.91073810962
30
0
11
2911.66134383076
21
4309.77473810962
31
0
0
LINE
8
Základní_vrstva
62
35
10
2911.66134383076
20
4309.77473810962
30
0
11
2911.86134383076
21
4309.56673810962
31
0
0
LINE
8
Základní_vrstva
62
35
10
2911.86134383076
20
4309.56673810962
30
0
11
2912.09334383076
21
4309.40673810962
31
0
0
LINE
8
Základní_vrstva
62
35
10
2912.09334383076
20
4309.40673810962
30
0
11
2912.24534383076
21
4309.19073810962
31
0
0
LINE
8
Základní_vrstva
62
35
10
2912.24534383076
20
4309.19073810962
30
0
11
2912.42134383076
21
4309.00673810962
31
0
0
LINE
8
Základní_vrstva
62
35
10
2912.42134383076
20
4309.00673810962
30
0
11
2912.69334383076
21
4308.98273810962
31
0
0
LINE
8
Základní_vrstva
62
35
10
2912.69334383076
20
4308.98273810962
30
0
11
2912.97334383076
21
4309.00673810962
31
0
0
LINE
8
Základní_vrstva
62
35
10
2912.97334383076
20
4309.00673810962
30
0
11
2913.22934383076
21
4308.93473810962
31
0
0
LINE
8
Základní_vrstva
62
35
10
2913.22934383076
20
4308.93473810962
30
0
11
2913.36334383076
21
4308.89673810962
31
0
0
LINE
8
Základní_vrstva
62
35
10
2913.36334383076
20
4308.89673810962
30
0
11
2913.50934383076
21
4308.91073810962
31
0
0
LINE
8
Základní_vrstva
62
35
10
2913.50934383076
20
4308.91073810962
30
0
11
2913.64134383076
21
4308.96873810962
31
0
0
LINE
8
Základní_vrstva
62
35
10
2913.64134383076
20
4308.96873810962
30
0
11
2913.73334383076
21
4309.06273810962
31
0
0
LINE
8
Základní_vrstva
62
35
10
2913.73334383076
20
4309.06273810962
30
0
11
2913.91734383076
21
4309.25473810962
31
0
0
LINE
8
Základní_vrstva
62
35
10
2913.91734383076
20
4309.25473810962
30
0
11
2914.16534383076
21
4309.36673810962
31
0
0
LINE
8
Základní_vrstva
62
35
10
2914.16534383076
20
4309.36673810962
30
0
11
2914.29134383076
21
4309.42473810962
31
0
0
LINE
8
Základní_vrstva
62
35
10
2914.29134383076
20
4309.42473810962
30
0
11
2914.39734383076
21
4309.53473810962
31
0
0
LINE
8
Základní_vrstva
62
35
10
2914.39734383076
20
4309.53473810962
30
0
11
2914.46534383076
21
4309.67073810962
31
0
0
LINE
8
Základní_vrstva
62
35
10
2914.46534383076
20
4309.67073810962
30
0
11
2914.47734383076
21
4309.80673810962
31
0
0
LINE
8
Základní_vrstva
62
35
10
2914.47734383076
20
4309.80673810962
30
0
11
2914.49334383076
21
4310.07873810962
31
0
0
LINE
8
Základní_vrstva
62
35
10
2914.49334383076
20
4310.07873810962
30
0
11
2914.60534383076
21
4310.33473810962
31
0
0
LINE
8
Základní_vrstva
62
35
10
2914.60534383076
20
4310.33473810962
30
0
11
2914.67734383076
21
4310.56673810962
31
0
0
CIRCLE
8
Základní_vrstva
62
35
10
2913.10134383076
20
4310.43873810962
30
0
40
0.133333333333212
0
LINE
8
Základní_vrstva
62
35
10
2908.33884383076
20
4298.33405060962
30
0
11
2916.17712508076
21
4306.76764435962
31
0
0
TEXT
8
Základní_vrstva
62
35
10
2905.98103133076
20
4297.91373810962
30
0
40
3
50
0
11
2905.98103133076
21
4297.91373810962
31
0
1
5
72
0
73
3
0
POINT
8
Základní_vrstva
62
0
10
2933.23493758076
20
4317.78873810962
30
0
0
POINT
8
Základní_vrstva
62
0
10
2937.79900008076
20
4316.79655060962
30
0
0
LINE
8
Základní_vrstva
62
0
10
2933.26149128631
20
4317.91088515511
30
0
11
2937.56752519266
21
4337.71864112434
31
0
0
LINE
8
Základní_vrstva
62
0
10
2937.8255537863
20
4316.91869765511
30
0
11
2942.13158769266
21
4336.72645362434
31
0
0
TEXT
8
Základní_vrstva
62
0
10
2938.1023438517
20
4340.51894285441
30
0
40
1.5
50
347.735226272107
11
2938.1023438517
21
4340.51894285441
31
0
1
4,7m
72
0
73
3
0
SOLID
8
Základní_vrstva
62
0
10
2937.51441778158
20
4337.47434703336
30
0
11
2938.02655322271
21
4337.47644960337
31
0
12
2937.97945870437
22
4337.25981481902
32
0
13
2937.97945870437
23
4337.25981481902
33
0
0
SOLID
8
Základní_vrstva
62
0
10
2942.07848028158
20
4336.48215953336
30
0
11
2941.56634484045
21
4336.48005696335
31
0
12
2941.61343935878
22
4336.6966917477
32
0
13
2941.61343935878
23
4336.6966917477
33
0
0
LINE
8
Základní_vrstva
62
0
10
2938.00300596354
20
4337.36813221119
30
0
11
2941.58989209962
21
4336.58837435553
31
0
0
POINT
8
Základní_vrstva
62
0
10
2913.19275008076
20
4310.44655060962
30
0
0
POINT
8
Základní_vrstva
62
0
10
2911.10915633076
20
4311.93483185962
30
0
0
LINE
8
Základní_vrstva
62
0
10
2913.12009530655
20
4310.34483392572
30
0
11
2901.56354061679
21
4294.16565736006
31
0
0
LINE
8
Základní_vrstva
62
0
10
2911.03650155655
20
4311.83311517572
30
0
11
2899.47994686679
21
4295.65393861006
31
0
0
TEXT
8
Základní_vrstva
62
0
10
2900.2803135612
20
4299.19907520615
30
0
40
1.5
50
324.462322208027
11
2900.2803135612
21
4299.19907520615
31
0
1
2,6m
72
0
73
3
0
SOLID
8
Základní_vrstva
62
0
10
2901.70885016522
20
4294.36909072787
30
0
11
2901.23755472698
21
4294.56950964104
31
0
12
2901.36641213226
22
4294.74991000842
32
0
13
2901.36641213226
23
4294.74991000842
33
0
0
SOLID
8
Základní_vrstva
62
0
10
2899.62525641522
20
4295.85737197787
30
0
11
2900.09655185346
21
4295.6569530647
31
0
12
2899.96769444819
22
4295.47655269732
32
0
13
2899.96769444819
23
4295.47655269732
33
0
0
LINE
8
Základní_vrstva
62
0
10
2901.30198342962
20
4294.65970982473
30
0
11
2900.03212315083
21
4295.56675288101
31
0
0
POINT
8
Základní_vrstva
62
0
10
2939.48571883076
20
4289.11451935962
30
0
0
POINT
8
Základní_vrstva
62
0
10
2936.41775008076
20
4292.08326935962
30
0
0
LINE
8
Základní_vrstva
62
0
10
2939.3987949628
20
4289.0246904045
30
0
11
2925.62450343783
21
4274.79004755751
31
0
0
LINE
8
Základní_vrstva
62
0
10
2936.3308262128
20
4291.9934404045
30
0
11
2922.55653468783
21
4277.75879755751
31
0
0
TEXT
8
Základní_vrstva
62
0
10
2924.59447441761
20
4280.44840243693
30
0
40
1.5
50
315.941621441564
11
2924.59447441761
21
4280.44840243693
31
0
1
4,3m
72
0
73
3
0
SOLID
8
Základní_vrstva
62
0
10
2925.79835117375
20
4274.96970546776
30
0
11
2925.36195312292
21
4275.23774253999
31
0
12
2925.51611758358
22
4275.3970593392
32
0
13
2925.51611758358
23
4275.3970593392
33
0
0
SOLID
8
Základní_vrstva
62
0
10
2922.73038242375
20
4277.93845546776
30
0
11
2923.16678047459
21
4277.67041839553
31
0
12
2923.01261601392
22
4277.51110159631
32
0
13
2923.01261601392
23
4277.51110159631
33
0
0
LINE
8
Základní_vrstva
62
0
10
2925.43903535325
20
4275.3174009396
30
0
11
2923.08969824425
21
4277.59075999592
31
0
0
POINT
8
Základní_vrstva
62
0
10
2929.37321883076
20
4297.44108185962
30
0
0
POINT
8
Základní_vrstva
62
0
10
2926.98415633076
20
4300.02858185962
30
0
0
LINE
8
Základní_vrstva
62
0
10
2929.28137903199
20
4297.35628533044
30
0
11
2914.69781244274
21
4283.89114443976
31
0
0
LINE
8
Základní_vrstva
62
0
10
2926.89231653199
20
4299.94378533044
30
0
11
2912.30874994274
21
4286.47864443976
31
0
0
TEXT
8
Základní_vrstva
62
0
10
2914.30376695584
20
4289.25621141379
30
0
40
1.5
50
312.716574200926
11
2914.30376695584
21
4289.25621141379
31
0
1
3,5m
72
0
73
3
0
SOLID
8
Základní_vrstva
62
0
10
2914.88149204029
20
4284.06073749813
30
0
11
2914.46086435074
21
4284.3529009415
31
0
12
2914.62374749639
22
4284.50329244494
32
0
13
2914.62374749639
23
4284.50329244494
33
0
0
SOLID
8
Základní_vrstva
62
0
10
2912.49242954029
20
4286.64823749813
30
0
11
2912.91305722984
21
4286.35607405475
31
0
12
2912.75017408419
22
4286.20568255131
32
0
13
2912.75017408419
23
4286.20568255131
33
0
0
LINE
8
Základní_vrstva
62
0
10
2914.54230592356
20
4284.42809669322
30
0
11
2912.83161565702
21
4286.28087830303
31
0
0
POINT
8
Základní_vrstva
62
0
10
2923.01540633076
20
4317.59030060962
30
0
0
POINT
8
Základní_vrstva
62
0
10
2925.29743758076
20
4317.29264435962
30
0
0
LINE
8
Základní_vrstva
62
0
10
2923.03157372877
20
4317.71425066102
30
0
11
2925.82789476293
21
4339.15271192292
31
0
0
LINE
8
Základní_vrstva
62
0
10
2925.31360497877
20
4317.41659441102
30
0
11
2928.10992601293
21
4338.85505567292
31
0
0
TEXT
8
Základní_vrstva
62
0
10
2925.00808138541
20
4342.1337857103
30
0
40
1.5
50
352.568592028833
11
2925.00808138541
21
4342.1337857103
31
0
1
2,3m
72
0
73
3
0
SOLID
8
Základní_vrstva
62
0
10
2925.79555996691
20
4338.90481182013
30
0
11
2926.3056970759
21
4338.95005848741
31
0
12
2926.27702326912
22
4338.73022596877
32
0
13
2926.27702326912
23
4338.73022596877
33
0
0
SOLID
8
Základní_vrstva
62
0
10
2928.07759121691
20
4338.60715557013
30
0
11
2927.56745410793
21
4338.56190890284
31
0
12
2927.59612791471
22
4338.78174142148
32
0
13
2927.59612791471
23
4338.78174142148
33
0
0
LINE
8
Základní_vrstva
62
0
10
2926.29136017251
20
4338.84014222809
30
0
11
2927.58179101132
21
4338.67182516216
31
0
0
POINT
8
Základní_vrstva
62
0
10
2937.50134383076
20
4307.17233185962
30
0
0
POINT
8
Základní_vrstva
62
0
10
2934.42556258076
20
4303.99733185962
30
0
0
LINE
8
Základní_vrstva
62
0
10
2937.59112385861
20
4307.08535745765
30
0
11
2956.55815829452
21
4288.71104284786
31
0
0
LINE
8
Základní_vrstva
62
0
10
2934.51534260861
20
4303.91035745764
30
0
11
2953.48237704452
21
4285.53604284786
31
0
0
TEXT
8
Základní_vrstva
62
0
10
2951.02934289195
20
4287.81851356284
30
0
40
1.5
50
405.9093804492
11
2951.02934289195
21
4287.81851356284
31
0
1
4,4m
72
0
73
3
0
SOLID
8
Základní_vrstva
62
0
10
2956.37859823882
20
4288.88499165182
30
0
11
2956.11031564285
21
4288.4487444976
31
0
12
2955.95108561897
22
4288.60299858324
32
0
13
2955.95108561897
23
4288.60299858324
33
0
0
SOLID
8
Základní_vrstva
62
0
10
2953.30281698882
20
4285.70999165182
30
0
11
2953.57109958479
21
4286.14623880603
31
0
12
2953.73032960868
22
4285.99198472039
32
0
13
2953.73032960868
23
4285.99198472039
33
0
0
LINE
8
Základní_vrstva
62
0
10
2956.03070063091
20
4288.52587154042
30
0
11
2953.65071459674
21
4286.06911176321
31
0
0
TEXT
8
Základní_vrstva
62
0
10
3113.66055091409
20
4343.49368024602
30
0
40
2.5
50
0
11
3113.66055091409
21
4343.49368024602
31
0
1
Legenda
72
0
73
3
0
TEXT
8
Základní_vrstva
62
161
10
3113.56914466409
20
4336.22284240087
30
0
40
3
50
0
11
3113.56914466409
21
4336.22284240087
31
0
1
1   lipa malolistá (Tilia cordata)
72
0
73
3
0
TEXT
8
Základní_vrstva
62
203
10
3113.75533806894
20
4328.53613718631
30
0
40
3
50
0
11
3113.75533806894
21
4328.53613718631
31
0
1
2   jarabina vtáèia (Sorbus aucuparia)
72
0
73
3
0
TEXT
8
Základní_vrstva
62
190
10
3113.69180091409
20
4313.10255697175
30
0
40
3
50
0
11
3113.69180091409
21
4313.10255697175
31
0
1
4   kalina obyèajná (Viburnum opulus)
72
0
73
3
0
TEXT
8
Základní_vrstva
62
1
10
3113.89805091409
20
4305.9309378766
30
0
40
3
50
0
11
3113.89805091409
21
4305.9309378766
31
0
1
5   èerešòa vtáèia (Prunus avium)
72
0
73
3
0
POLYLINE
8
Základní_vrstva
62
0
66
1
0
VERTEX
8
Základní_vrstva
10
3110.44805046321
20
4278.8395084953
30
0
0
VERTEX
8
Základní_vrstva
10
3310.44805046321
20
4278.8395084953
30
0
0
VERTEX
8
Základní_vrstva
10
3310.44805046321
20
4223.5248530825
30
0
0
VERTEX
8
Základní_vrstva
10
3110.44805046321
20
4223.5248530825
30
0
0
VERTEX
8
Základní_vrstva
10
3110.44805046321
20
4278.8395084953
30
0
0
SEQEND
0
LINE
8
Základní_vrstva
62
0
10
3232.9760504632
20
4278.8395084953
30
0
11
3232.9760504632
21
4223.5248530825
31
0
0
LINE
8
Základní_vrstva
62
0
10
3232.9760504632
20
4269.62039925984
30
0
11
3310.44805046321
21
4269.62039925984
31
0
0
LINE
8
Základní_vrstva
62
0
10
3110.44805046321
20
4260.40129002437
30
0
11
3310.44805046321
21
4260.40129002437
31
0
0
LINE
8
Základní_vrstva
62
0
10
3232.9760504632
20
4251.1821807889
30
0
11
3310.44805046321
21
4251.1821807889
31
0
0
LINE
8
Základní_vrstva
62
0
10
3110.44805046321
20
4241.96307155344
30
0
11
3310.44805046321
21
4241.96307155344
31
0
0
LINE
8
Základní_vrstva
62
0
10
3232.9760504632
20
4232.74396231797
30
0
11
3310.44805046321
21
4232.74396231797
31
0
0
LINE
8
Základní_vrstva
62
0
10
3251.92605046321
20
4269.62039925984
30
0
11
3251.92605046321
21
4223.5248530825
31
0
0
TEXT
8
Základní_vrstva
62
0
10
3111.44805046321
20
4271.87039925984
30
0
40
2.25
50
0
11
3111.44805046321
21
4271.87039925984
31
0
1
Projekt pozemkových úprav Ve¾ký Ruskov (okr. TV, k.ú. V. Ruskov)
72
0
73
3
0
TEXT
8
Základní_vrstva
62
0
10
3233.9760504632
20
4275.97995387757
30
0
40
1.75
50
0
11
3233.9760504632
21
4275.97995387757
31
0
1
Objednávate¾ : LUPO-GEO s.r.o., J.Husa 1460/23, TV
72
0
73
3
0
TEXT
8
Základní_vrstva
62
0
10
3233.9760504632
20
4266.7608446421
30
0
40
1.75
50
0
11
3233.9760504632
21
4266.7608446421
31
0
1
Zhotovite¾
72
0
73
3
0
TEXT
8
Základní_vrstva
62
0
10
3252.92605046321
20
4266.7608446421
30
0
40
1.75
50
0
11
3252.92605046321
21
4266.7608446421
31
0
1
STAFIN s.r.o., B.Nemcovej 3538/3, TV
72
0
73
3
0
TEXT
8
Základní_vrstva
62
0
10
3111.44805046321
20
4253.4321807889
30
0
40
2.25
50
0
11
3111.44805046321
21
4253.4321807889
31
0
1
Ekologické, protierózne a krajinotvorné zariadenia a opatrenia
72
0
73
3
0
TEXT
8
Základní_vrstva
62
0
10
3233.9760504632
20
4257.54173540664
30
0
40
1.75
50
0
11
3233.9760504632
21
4257.54173540664
31
0
1
Vypracoval
72
0
73
3
0
TEXT
8
Základní_vrstva
62
0
10
3252.92605046321
20
4257.54173540664
30
0
40
1.75
50
0
11
3252.92605046321
21
4257.54173540664
31
0
1
Ing. Estera Schwartzová
72
0
73
3
0
TEXT
8
Základní_vrstva
62
0
10
3233.9760504632
20
4248.32262617117
30
0
40
1.75
50
0
11
3233.9760504632
21
4248.32262617117
31
0
1
Dátum
72
0
73
3
0
TEXT
8
Základní_vrstva
62
0
10
3252.92605046321
20
4248.32262617117
30
0
40
1.75
50
0
11
3252.92605046321
21
4248.32262617117
31
0
1
20.5.2008
72
0
73
3
0
TEXT
8
Základní_vrstva
62
0
10
3111.44805046321
20
4235.49396231797
30
0
40
2.75
50
0
11
3111.44805046321
21
4235.49396231797
31
0
1
Výkres : Ekostabilizaèná plocha SO ZN 20
72
0
73
3
0
TEXT
8
Základní_vrstva
62
0
10
3233.9760504632
20
4239.1035169357
30
0
40
1.75
50
0
11
3233.9760504632
21
4239.1035169357
31
0
1
Formát
72
0
73
3
0
TEXT
8
Základní_vrstva
62
0
10
3252.92605046321
20
4239.1035169357
30
0
40
1.75
50
0
11
3252.92605046321
21
4239.1035169357
31
0
1
A3
72
0
73
3
0
TEXT
8
Základní_vrstva
62
0
10
3233.9760504632
20
4229.88440770024
30
0
40
1.75
50
0
11
3233.9760504632
21
4229.88440770024
31
0
1
Mierka
72
0
73
3
0
TEXT
8
Základní_vrstva
62
0
10
3252.92605046321
20
4229.88440770024
30
0
40
1.75
50
0
11
3252.92605046321
21
4229.88440770024
31
0
1
1:1000
72
0
73
3
0
POLYLINE
8
Základní_vrstva
62
0
66
1
0
VERTEX
8
Základní_vrstva
10
3108.82575078498
20
4279.91937674234
30
0
0
VERTEX
8
Základní_vrstva
10
3310.87114945785
20
4279.91937674234
30
0
0
VERTEX
8
Základní_vrstva
10
3310.87114945785
20
4222.42794296411
30
0
0
VERTEX
8
Základní_vrstva
10
3108.82575078498
20
4222.42794296411
30
0
0
VERTEX
8
Základní_vrstva
10
3108.82575078498
20
4279.91937674234
30
0
0
SEQEND
0
POLYLINE
8
Základní_vrstva
62
0
66
1
0
VERTEX
8
Základní_vrstva
10
3111.19092988227
20
4345.44645482645
30
0
0
VERTEX
8
Základní_vrstva
10
3203.29587558123
20
4345.44645482645
30
0
0
VERTEX
8
Základní_vrstva
10
3203.29587558123
20
4296.00777073804
30
0
0
VERTEX
8
Základní_vrstva
10
3111.19092988227
20
4296.00777073804
30
0
0
VERTEX
8
Základní_vrstva
10
3111.19092988227
20
4345.44645482645
30
0
0
SEQEND
0
POLYLINE
8
Základní_vrstva
62
0
66
1
0
VERTEX
8
Základní_vrstva
10
2872.69762553761
20
4424.27264293298
30
0
0
VERTEX
8
Základní_vrstva
10
3089.21173710468
20
4424.27264293298
30
0
0
VERTEX
8
Základní_vrstva
10
3089.21173710468
20
4186.76039554583
30
0
0
VERTEX
8
Základní_vrstva
10
2872.69762553761
20
4186.76039554583
30
0
0
VERTEX
8
Základní_vrstva
10
2872.69762553761
20
4424.27264293298
30
0
0
SEQEND
0
TEXT
8
Základní_vrstva
62
92
10
3113.90248250923
20
4319.99551218631
30
0
40
3
50
0
11
3113.90248250923
21
4319.99551218631
31
0
1
3   èremcha obyèajná (Prunus padus)
72
0
73
3
0
ENDSEC
0
EOF
