0
SECTION
2
HEADER
9
$ACADVER
1
AC1009
0
ENDSEC
0
SECTION
2
TABLES
0
TABLE
2
LAYER
70
1
0
LAYER
2
Základní_vrstva
62
255
70
0
6
CONTINUOUS
0
ENDTAB
0
ENDSEC
0
SECTION
2
ENTITIES
0
LINE
8
Základní_vrstva
62
3
10
2380.20335602256
20
2860.51880911871
30
0
11
2380.13135602256
21
2860.68680911871
31
0
0
LINE
8
Základní_vrstva
62
3
10
2380.13135602256
20
2860.68680911871
30
0
11
2380.01135602256
21
2860.87280911871
31
0
0
LINE
8
Základní_vrstva
62
3
10
2380.01135602256
20
2860.87280911871
30
0
11
2379.95735602256
21
2861.07680911871
31
0
0
LINE
8
Základní_vrstva
62
3
10
2379.95735602256
20
2861.07680911871
30
0
11
2379.87335602256
21
2861.25680911871
31
0
0
LINE
8
Základní_vrstva
62
3
10
2379.87335602256
20
2861.25680911871
30
0
11
2379.68135602256
21
2861.35280911871
31
0
0
LINE
8
Základní_vrstva
62
3
10
2379.68135602256
20
2861.35280911871
30
0
11
2379.48335602256
21
2861.40680911871
31
0
0
LINE
8
Základní_vrstva
62
3
10
2379.48335602256
20
2861.40680911871
30
0
11
2379.32135602256
21
2861.52080911871
31
0
0
LINE
8
Základní_vrstva
62
3
10
2379.32135602256
20
2861.52080911871
30
0
11
2379.13535602256
21
2861.60480911871
31
0
0
LINE
8
Základní_vrstva
62
3
10
2379.13535602256
20
2861.60480911871
30
0
11
2378.93735602256
21
2861.55080911871
31
0
0
LINE
8
Základní_vrstva
62
3
10
2378.93735602256
20
2861.55080911871
30
0
11
2378.76335602256
21
2861.46680911871
31
0
0
LINE
8
Základní_vrstva
62
3
10
2378.76335602256
20
2861.46680911871
30
0
11
2378.55935602256
21
2861.44880911871
31
0
0
LINE
8
Základní_vrstva
62
3
10
2378.55935602256
20
2861.44880911871
30
0
11
2378.35535602256
21
2861.40080911871
31
0
0
LINE
8
Základní_vrstva
62
3
10
2378.35535602256
20
2861.40080911871
30
0
11
2378.22935602256
21
2861.22680911871
31
0
0
LINE
8
Základní_vrstva
62
3
10
2378.22935602256
20
2861.22680911871
30
0
11
2378.13935602256
21
2861.04080911871
31
0
0
LINE
8
Základní_vrstva
62
3
10
2378.13935602256
20
2861.04080911871
30
0
11
2378.00135602256
21
2860.90280911871
31
0
0
LINE
8
Základní_vrstva
62
3
10
2378.00135602256
20
2860.90280911871
30
0
11
2377.88135602256
21
2860.71680911871
31
0
0
LINE
8
Základní_vrstva
62
3
10
2377.88135602256
20
2860.71680911871
30
0
11
2377.89935602256
21
2860.51280911871
31
0
0
LINE
8
Základní_vrstva
62
3
10
2377.89935602256
20
2860.51280911871
30
0
11
2377.95335602256
21
2860.32680911871
31
0
0
LINE
8
Základní_vrstva
62
3
10
2377.95335602256
20
2860.32680911871
30
0
11
2377.92935602256
21
2860.12880911871
31
0
0
LINE
8
Základní_vrstva
62
3
10
2377.92935602256
20
2860.12880911871
30
0
11
2377.94735602256
21
2859.92480911871
31
0
0
LINE
8
Základní_vrstva
62
3
10
2377.94735602256
20
2859.92480911871
30
0
11
2378.09735602256
21
2859.76880911871
31
0
0
LINE
8
Základní_vrstva
62
3
10
2378.09735602256
20
2859.76880911871
30
0
11
2378.27135602256
21
2859.64880911871
31
0
0
LINE
8
Základní_vrstva
62
3
10
2378.27135602256
20
2859.64880911871
30
0
11
2378.38535602256
21
2859.48680911871
31
0
0
LINE
8
Základní_vrstva
62
3
10
2378.38535602256
20
2859.48680911871
30
0
11
2378.51735602256
21
2859.34880911871
31
0
0
LINE
8
Základní_vrstva
62
3
10
2378.51735602256
20
2859.34880911871
30
0
11
2378.72135602256
21
2859.33080911871
31
0
0
LINE
8
Základní_vrstva
62
3
10
2378.72135602256
20
2859.33080911871
30
0
11
2378.93135602256
21
2859.34880911871
31
0
0
LINE
8
Základní_vrstva
62
3
10
2378.93135602256
20
2859.34880911871
30
0
11
2379.12335602256
21
2859.29480911871
31
0
0
LINE
8
Základní_vrstva
62
3
10
2379.12335602256
20
2859.29480911871
30
0
11
2379.33335602256
21
2859.27680911871
31
0
0
LINE
8
Základní_vrstva
62
3
10
2379.33335602256
20
2859.27680911871
30
0
11
2379.50135602256
21
2859.39080911871
31
0
0
LINE
8
Základní_vrstva
62
3
10
2379.50135602256
20
2859.39080911871
30
0
11
2379.63935602256
21
2859.53480911871
31
0
0
LINE
8
Základní_vrstva
62
3
10
2379.63935602256
20
2859.53480911871
30
0
11
2379.82535602256
21
2859.61880911871
31
0
0
LINE
8
Základní_vrstva
62
3
10
2379.82535602256
20
2859.61880911871
30
0
11
2379.99935602256
21
2859.74480911871
31
0
0
LINE
8
Základní_vrstva
62
3
10
2379.99935602256
20
2859.74480911871
30
0
11
2380.05935602256
21
2859.94880911871
31
0
0
LINE
8
Základní_vrstva
62
3
10
2380.05935602256
20
2859.94880911871
30
0
11
2380.07135602256
21
2860.15280911871
31
0
0
LINE
8
Základní_vrstva
62
3
10
2380.07135602256
20
2860.15280911871
30
0
11
2380.15535602256
21
2860.34480911871
31
0
0
LINE
8
Základní_vrstva
62
3
10
2380.15535602256
20
2860.34480911871
30
0
11
2380.20935602256
21
2860.51880911871
31
0
0
CIRCLE
8
Základní_vrstva
62
3
10
2379.02735602256
20
2860.42280911871
30
0
40
0.0999999999999091
0
LINE
8
Základní_vrstva
62
3
10
2385.66038727256
20
2862.30474661871
30
0
11
2385.58838727256
21
2862.47274661871
31
0
0
LINE
8
Základní_vrstva
62
3
10
2385.58838727256
20
2862.47274661871
30
0
11
2385.46838727256
21
2862.65874661871
31
0
0
LINE
8
Základní_vrstva
62
3
10
2385.46838727256
20
2862.65874661871
30
0
11
2385.41438727256
21
2862.86274661871
31
0
0
LINE
8
Základní_vrstva
62
3
10
2385.41438727256
20
2862.86274661871
30
0
11
2385.33038727256
21
2863.04274661871
31
0
0
LINE
8
Základní_vrstva
62
3
10
2385.33038727256
20
2863.04274661871
30
0
11
2385.13838727256
21
2863.13874661871
31
0
0
LINE
8
Základní_vrstva
62
3
10
2385.13838727256
20
2863.13874661871
30
0
11
2384.94038727256
21
2863.19274661871
31
0
0
LINE
8
Základní_vrstva
62
3
10
2384.94038727256
20
2863.19274661871
30
0
11
2384.77838727256
21
2863.30674661871
31
0
0
LINE
8
Základní_vrstva
62
3
10
2384.77838727256
20
2863.30674661871
30
0
11
2384.59238727256
21
2863.39074661871
31
0
0
LINE
8
Základní_vrstva
62
3
10
2384.59238727256
20
2863.39074661871
30
0
11
2384.39438727256
21
2863.33674661871
31
0
0
LINE
8
Základní_vrstva
62
3
10
2384.39438727256
20
2863.33674661871
30
0
11
2384.22038727256
21
2863.25274661871
31
0
0
LINE
8
Základní_vrstva
62
3
10
2384.22038727256
20
2863.25274661871
30
0
11
2384.01638727256
21
2863.23474661871
31
0
0
LINE
8
Základní_vrstva
62
3
10
2384.01638727256
20
2863.23474661871
30
0
11
2383.81238727256
21
2863.18674661871
31
0
0
LINE
8
Základní_vrstva
62
3
10
2383.81238727256
20
2863.18674661871
30
0
11
2383.68638727256
21
2863.01274661871
31
0
0
LINE
8
Základní_vrstva
62
3
10
2383.68638727256
20
2863.01274661871
30
0
11
2383.59638727256
21
2862.82674661871
31
0
0
LINE
8
Základní_vrstva
62
3
10
2383.59638727256
20
2862.82674661871
30
0
11
2383.45838727256
21
2862.68874661871
31
0
0
LINE
8
Základní_vrstva
62
3
10
2383.45838727256
20
2862.68874661871
30
0
11
2383.33838727256
21
2862.50274661871
31
0
0
LINE
8
Základní_vrstva
62
3
10
2383.33838727256
20
2862.50274661871
30
0
11
2383.35638727256
21
2862.29874661871
31
0
0
LINE
8
Základní_vrstva
62
3
10
2383.35638727256
20
2862.29874661871
30
0
11
2383.41038727256
21
2862.11274661871
31
0
0
LINE
8
Základní_vrstva
62
3
10
2383.41038727256
20
2862.11274661871
30
0
11
2383.38638727256
21
2861.91474661871
31
0
0
LINE
8
Základní_vrstva
62
3
10
2383.38638727256
20
2861.91474661871
30
0
11
2383.40438727256
21
2861.71074661871
31
0
0
LINE
8
Základní_vrstva
62
3
10
2383.40438727256
20
2861.71074661871
30
0
11
2383.55438727256
21
2861.55474661871
31
0
0
LINE
8
Základní_vrstva
62
3
10
2383.55438727256
20
2861.55474661871
30
0
11
2383.72838727256
21
2861.43474661871
31
0
0
LINE
8
Základní_vrstva
62
3
10
2383.72838727256
20
2861.43474661871
30
0
11
2383.84238727256
21
2861.27274661871
31
0
0
LINE
8
Základní_vrstva
62
3
10
2383.84238727256
20
2861.27274661871
30
0
11
2383.97438727256
21
2861.13474661871
31
0
0
LINE
8
Základní_vrstva
62
3
10
2383.97438727256
20
2861.13474661871
30
0
11
2384.17838727256
21
2861.11674661871
31
0
0
LINE
8
Základní_vrstva
62
3
10
2384.17838727256
20
2861.11674661871
30
0
11
2384.38838727256
21
2861.13474661871
31
0
0
LINE
8
Základní_vrstva
62
3
10
2384.38838727256
20
2861.13474661871
30
0
11
2384.58038727256
21
2861.08074661871
31
0
0
LINE
8
Základní_vrstva
62
3
10
2384.58038727256
20
2861.08074661871
30
0
11
2384.79038727256
21
2861.06274661871
31
0
0
LINE
8
Základní_vrstva
62
3
10
2384.79038727256
20
2861.06274661871
30
0
11
2384.95838727256
21
2861.17674661871
31
0
0
LINE
8
Základní_vrstva
62
3
10
2384.95838727256
20
2861.17674661871
30
0
11
2385.09638727256
21
2861.32074661871
31
0
0
LINE
8
Základní_vrstva
62
3
10
2385.09638727256
20
2861.32074661871
30
0
11
2385.28238727256
21
2861.40474661871
31
0
0
LINE
8
Základní_vrstva
62
3
10
2385.28238727256
20
2861.40474661871
30
0
11
2385.45638727256
21
2861.53074661871
31
0
0
LINE
8
Základní_vrstva
62
3
10
2385.45638727256
20
2861.53074661871
30
0
11
2385.51638727256
21
2861.73474661871
31
0
0
LINE
8
Základní_vrstva
62
3
10
2385.51638727256
20
2861.73474661871
30
0
11
2385.52838727256
21
2861.93874661871
31
0
0
LINE
8
Základní_vrstva
62
3
10
2385.52838727256
20
2861.93874661871
30
0
11
2385.61238727256
21
2862.13074661871
31
0
0
LINE
8
Základní_vrstva
62
3
10
2385.61238727256
20
2862.13074661871
30
0
11
2385.66638727256
21
2862.30474661871
31
0
0
CIRCLE
8
Základní_vrstva
62
3
10
2384.48438727256
20
2862.20874661871
30
0
40
0.0999999999999091
0
LINE
8
Základní_vrstva
62
3
10
2391.11741852256
20
2864.18990286871
30
0
11
2391.04541852256
21
2864.35790286871
31
0
0
LINE
8
Základní_vrstva
62
3
10
2391.04541852256
20
2864.35790286871
30
0
11
2390.92541852256
21
2864.54390286871
31
0
0
LINE
8
Základní_vrstva
62
3
10
2390.92541852256
20
2864.54390286871
30
0
11
2390.87141852256
21
2864.74790286871
31
0
0
LINE
8
Základní_vrstva
62
3
10
2390.87141852256
20
2864.74790286871
30
0
11
2390.78741852256
21
2864.92790286871
31
0
0
LINE
8
Základní_vrstva
62
3
10
2390.78741852256
20
2864.92790286871
30
0
11
2390.59541852256
21
2865.02390286871
31
0
0
LINE
8
Základní_vrstva
62
3
10
2390.59541852256
20
2865.02390286871
30
0
11
2390.39741852256
21
2865.07790286871
31
0
0
LINE
8
Základní_vrstva
62
3
10
2390.39741852256
20
2865.07790286871
30
0
11
2390.23541852256
21
2865.19190286871
31
0
0
LINE
8
Základní_vrstva
62
3
10
2390.23541852256
20
2865.19190286871
30
0
11
2390.04941852256
21
2865.27590286871
31
0
0
LINE
8
Základní_vrstva
62
3
10
2390.04941852256
20
2865.27590286871
30
0
11
2389.85141852256
21
2865.22190286871
31
0
0
LINE
8
Základní_vrstva
62
3
10
2389.85141852256
20
2865.22190286871
30
0
11
2389.67741852256
21
2865.13790286871
31
0
0
LINE
8
Základní_vrstva
62
3
10
2389.67741852256
20
2865.13790286871
30
0
11
2389.47341852256
21
2865.11990286871
31
0
0
LINE
8
Základní_vrstva
62
3
10
2389.47341852256
20
2865.11990286871
30
0
11
2389.26941852256
21
2865.07190286871
31
0
0
LINE
8
Základní_vrstva
62
3
10
2389.26941852256
20
2865.07190286871
30
0
11
2389.14341852256
21
2864.89790286871
31
0
0
LINE
8
Základní_vrstva
62
3
10
2389.14341852256
20
2864.89790286871
30
0
11
2389.05341852256
21
2864.71190286871
31
0
0
LINE
8
Základní_vrstva
62
3
10
2389.05341852256
20
2864.71190286871
30
0
11
2388.91541852256
21
2864.57390286871
31
0
0
LINE
8
Základní_vrstva
62
3
10
2388.91541852256
20
2864.57390286871
30
0
11
2388.79541852256
21
2864.38790286871
31
0
0
LINE
8
Základní_vrstva
62
3
10
2388.79541852256
20
2864.38790286871
30
0
11
2388.81341852256
21
2864.18390286871
31
0
0
LINE
8
Základní_vrstva
62
3
10
2388.81341852256
20
2864.18390286871
30
0
11
2388.86741852256
21
2863.99790286871
31
0
0
LINE
8
Základní_vrstva
62
3
10
2388.86741852256
20
2863.99790286871
30
0
11
2388.84341852256
21
2863.79990286871
31
0
0
LINE
8
Základní_vrstva
62
3
10
2388.84341852256
20
2863.79990286871
30
0
11
2388.86141852256
21
2863.59590286871
31
0
0
LINE
8
Základní_vrstva
62
3
10
2388.86141852256
20
2863.59590286871
30
0
11
2389.01141852256
21
2863.43990286871
31
0
0
LINE
8
Základní_vrstva
62
3
10
2389.01141852256
20
2863.43990286871
30
0
11
2389.18541852256
21
2863.31990286871
31
0
0
LINE
8
Základní_vrstva
62
3
10
2389.18541852256
20
2863.31990286871
30
0
11
2389.29941852256
21
2863.15790286871
31
0
0
LINE
8
Základní_vrstva
62
3
10
2389.29941852256
20
2863.15790286871
30
0
11
2389.43141852256
21
2863.01990286871
31
0
0
LINE
8
Základní_vrstva
62
3
10
2389.43141852256
20
2863.01990286871
30
0
11
2389.63541852256
21
2863.00190286871
31
0
0
LINE
8
Základní_vrstva
62
3
10
2389.63541852256
20
2863.00190286871
30
0
11
2389.84541852256
21
2863.01990286871
31
0
0
LINE
8
Základní_vrstva
62
3
10
2389.84541852256
20
2863.01990286871
30
0
11
2390.03741852256
21
2862.96590286871
31
0
0
LINE
8
Základní_vrstva
62
3
10
2390.03741852256
20
2862.96590286871
30
0
11
2390.24741852256
21
2862.94790286871
31
0
0
LINE
8
Základní_vrstva
62
3
10
2390.24741852256
20
2862.94790286871
30
0
11
2390.41541852256
21
2863.06190286871
31
0
0
LINE
8
Základní_vrstva
62
3
10
2390.41541852256
20
2863.06190286871
30
0
11
2390.55341852256
21
2863.20590286871
31
0
0
LINE
8
Základní_vrstva
62
3
10
2390.55341852256
20
2863.20590286871
30
0
11
2390.73941852256
21
2863.28990286871
31
0
0
LINE
8
Základní_vrstva
62
3
10
2390.73941852256
20
2863.28990286871
30
0
11
2390.91341852256
21
2863.41590286871
31
0
0
LINE
8
Základní_vrstva
62
3
10
2390.91341852256
20
2863.41590286871
30
0
11
2390.97341852256
21
2863.61990286871
31
0
0
LINE
8
Základní_vrstva
62
3
10
2390.97341852256
20
2863.61990286871
30
0
11
2390.98541852256
21
2863.82390286871
31
0
0
LINE
8
Základní_vrstva
62
3
10
2390.98541852256
20
2863.82390286871
30
0
11
2391.06941852256
21
2864.01590286871
31
0
0
LINE
8
Základní_vrstva
62
3
10
2391.06941852256
20
2864.01590286871
30
0
11
2391.12341852256
21
2864.18990286871
31
0
0
CIRCLE
8
Základní_vrstva
62
3
10
2389.94141852256
20
2864.09390286871
30
0
40
0.0999999999999091
0
LINE
8
Základní_vrstva
62
3
10
2397.07054352256
20
2866.07505911871
30
0
11
2396.99854352256
21
2866.24305911871
31
0
0
LINE
8
Základní_vrstva
62
3
10
2396.99854352256
20
2866.24305911871
30
0
11
2396.87854352256
21
2866.42905911871
31
0
0
LINE
8
Základní_vrstva
62
3
10
2396.87854352256
20
2866.42905911871
30
0
11
2396.82454352256
21
2866.63305911871
31
0
0
LINE
8
Základní_vrstva
62
3
10
2396.82454352256
20
2866.63305911871
30
0
11
2396.74054352256
21
2866.81305911871
31
0
0
LINE
8
Základní_vrstva
62
3
10
2396.74054352256
20
2866.81305911871
30
0
11
2396.54854352256
21
2866.90905911871
31
0
0
LINE
8
Základní_vrstva
62
3
10
2396.54854352256
20
2866.90905911871
30
0
11
2396.35054352256
21
2866.96305911871
31
0
0
LINE
8
Základní_vrstva
62
3
10
2396.35054352256
20
2866.96305911871
30
0
11
2396.18854352256
21
2867.07705911871
31
0
0
LINE
8
Základní_vrstva
62
3
10
2396.18854352256
20
2867.07705911871
30
0
11
2396.00254352256
21
2867.16105911871
31
0
0
LINE
8
Základní_vrstva
62
3
10
2396.00254352256
20
2867.16105911871
30
0
11
2395.80454352256
21
2867.10705911871
31
0
0
LINE
8
Základní_vrstva
62
3
10
2395.80454352256
20
2867.10705911871
30
0
11
2395.63054352256
21
2867.02305911871
31
0
0
LINE
8
Základní_vrstva
62
3
10
2395.63054352256
20
2867.02305911871
30
0
11
2395.42654352256
21
2867.00505911871
31
0
0
LINE
8
Základní_vrstva
62
3
10
2395.42654352256
20
2867.00505911871
30
0
11
2395.22254352256
21
2866.95705911871
31
0
0
LINE
8
Základní_vrstva
62
3
10
2395.22254352256
20
2866.95705911871
30
0
11
2395.09654352256
21
2866.78305911871
31
0
0
LINE
8
Základní_vrstva
62
3
10
2395.09654352256
20
2866.78305911871
30
0
11
2395.00654352256
21
2866.59705911871
31
0
0
LINE
8
Základní_vrstva
62
3
10
2395.00654352256
20
2866.59705911871
30
0
11
2394.86854352256
21
2866.45905911871
31
0
0
LINE
8
Základní_vrstva
62
3
10
2394.86854352256
20
2866.45905911871
30
0
11
2394.74854352256
21
2866.27305911871
31
0
0
LINE
8
Základní_vrstva
62
3
10
2394.74854352256
20
2866.27305911871
30
0
11
2394.76654352256
21
2866.06905911871
31
0
0
LINE
8
Základní_vrstva
62
3
10
2394.76654352256
20
2866.06905911871
30
0
11
2394.82054352256
21
2865.88305911871
31
0
0
LINE
8
Základní_vrstva
62
3
10
2394.82054352256
20
2865.88305911871
30
0
11
2394.79654352256
21
2865.68505911871
31
0
0
LINE
8
Základní_vrstva
62
3
10
2394.79654352256
20
2865.68505911871
30
0
11
2394.81454352256
21
2865.48105911871
31
0
0
LINE
8
Základní_vrstva
62
3
10
2394.81454352256
20
2865.48105911871
30
0
11
2394.96454352256
21
2865.32505911871
31
0
0
LINE
8
Základní_vrstva
62
3
10
2394.96454352256
20
2865.32505911871
30
0
11
2395.13854352256
21
2865.20505911871
31
0
0
LINE
8
Základní_vrstva
62
3
10
2395.13854352256
20
2865.20505911871
30
0
11
2395.25254352256
21
2865.04305911871
31
0
0
LINE
8
Základní_vrstva
62
3
10
2395.25254352256
20
2865.04305911871
30
0
11
2395.38454352256
21
2864.90505911871
31
0
0
LINE
8
Základní_vrstva
62
3
10
2395.38454352256
20
2864.90505911871
30
0
11
2395.58854352256
21
2864.88705911871
31
0
0
LINE
8
Základní_vrstva
62
3
10
2395.58854352256
20
2864.88705911871
30
0
11
2395.79854352256
21
2864.90505911871
31
0
0
LINE
8
Základní_vrstva
62
3
10
2395.79854352256
20
2864.90505911871
30
0
11
2395.99054352256
21
2864.85105911871
31
0
0
LINE
8
Základní_vrstva
62
3
10
2395.99054352256
20
2864.85105911871
30
0
11
2396.20054352256
21
2864.83305911871
31
0
0
LINE
8
Základní_vrstva
62
3
10
2396.20054352256
20
2864.83305911871
30
0
11
2396.36854352256
21
2864.94705911871
31
0
0
LINE
8
Základní_vrstva
62
3
10
2396.36854352256
20
2864.94705911871
30
0
11
2396.50654352256
21
2865.09105911871
31
0
0
LINE
8
Základní_vrstva
62
3
10
2396.50654352256
20
2865.09105911871
30
0
11
2396.69254352256
21
2865.17505911871
31
0
0
LINE
8
Základní_vrstva
62
3
10
2396.69254352256
20
2865.17505911871
30
0
11
2396.86654352256
21
2865.30105911871
31
0
0
LINE
8
Základní_vrstva
62
3
10
2396.86654352256
20
2865.30105911871
30
0
11
2396.92654352256
21
2865.50505911871
31
0
0
LINE
8
Základní_vrstva
62
3
10
2396.92654352256
20
2865.50505911871
30
0
11
2396.93854352256
21
2865.70905911871
31
0
0
LINE
8
Základní_vrstva
62
3
10
2396.93854352256
20
2865.70905911871
30
0
11
2397.02254352256
21
2865.90105911871
31
0
0
LINE
8
Základní_vrstva
62
3
10
2397.02254352256
20
2865.90105911871
30
0
11
2397.07654352256
21
2866.07505911871
31
0
0
CIRCLE
8
Základní_vrstva
62
3
10
2395.89454352256
20
2865.97905911871
30
0
40
0.0999999999999091
0
LINE
8
Základní_vrstva
62
3
10
2402.92444977256
20
2867.86099661871
30
0
11
2402.85244977256
21
2868.02899661871
31
0
0
LINE
8
Základní_vrstva
62
3
10
2402.85244977256
20
2868.02899661871
30
0
11
2402.73244977256
21
2868.21499661871
31
0
0
LINE
8
Základní_vrstva
62
3
10
2402.73244977256
20
2868.21499661871
30
0
11
2402.67844977256
21
2868.41899661871
31
0
0
LINE
8
Základní_vrstva
62
3
10
2402.67844977256
20
2868.41899661871
30
0
11
2402.59444977256
21
2868.59899661871
31
0
0
LINE
8
Základní_vrstva
62
3
10
2402.59444977256
20
2868.59899661871
30
0
11
2402.40244977256
21
2868.69499661871
31
0
0
LINE
8
Základní_vrstva
62
3
10
2402.40244977256
20
2868.69499661871
30
0
11
2402.20444977256
21
2868.74899661871
31
0
0
LINE
8
Základní_vrstva
62
3
10
2402.20444977256
20
2868.74899661871
30
0
11
2402.04244977256
21
2868.86299661871
31
0
0
LINE
8
Základní_vrstva
62
3
10
2402.04244977256
20
2868.86299661871
30
0
11
2401.85644977256
21
2868.94699661871
31
0
0
LINE
8
Základní_vrstva
62
3
10
2401.85644977256
20
2868.94699661871
30
0
11
2401.65844977256
21
2868.89299661871
31
0
0
LINE
8
Základní_vrstva
62
3
10
2401.65844977256
20
2868.89299661871
30
0
11
2401.48444977256
21
2868.80899661871
31
0
0
LINE
8
Základní_vrstva
62
3
10
2401.48444977256
20
2868.80899661871
30
0
11
2401.28044977256
21
2868.79099661871
31
0
0
LINE
8
Základní_vrstva
62
3
10
2401.28044977256
20
2868.79099661871
30
0
11
2401.07644977256
21
2868.74299661871
31
0
0
LINE
8
Základní_vrstva
62
3
10
2401.07644977256
20
2868.74299661871
30
0
11
2400.95044977256
21
2868.56899661871
31
0
0
LINE
8
Základní_vrstva
62
3
10
2400.95044977256
20
2868.56899661871
30
0
11
2400.86044977256
21
2868.38299661871
31
0
0
LINE
8
Základní_vrstva
62
3
10
2400.86044977256
20
2868.38299661871
30
0
11
2400.72244977256
21
2868.24499661871
31
0
0
LINE
8
Základní_vrstva
62
3
10
2400.72244977256
20
2868.24499661871
30
0
11
2400.60244977256
21
2868.05899661871
31
0
0
LINE
8
Základní_vrstva
62
3
10
2400.60244977256
20
2868.05899661871
30
0
11
2400.62044977256
21
2867.85499661871
31
0
0
LINE
8
Základní_vrstva
62
3
10
2400.62044977256
20
2867.85499661871
30
0
11
2400.67444977256
21
2867.66899661871
31
0
0
LINE
8
Základní_vrstva
62
3
10
2400.67444977256
20
2867.66899661871
30
0
11
2400.65044977256
21
2867.47099661871
31
0
0
LINE
8
Základní_vrstva
62
3
10
2400.65044977256
20
2867.47099661871
30
0
11
2400.66844977256
21
2867.26699661871
31
0
0
LINE
8
Základní_vrstva
62
3
10
2400.66844977256
20
2867.26699661871
30
0
11
2400.81844977256
21
2867.11099661871
31
0
0
LINE
8
Základní_vrstva
62
3
10
2400.81844977256
20
2867.11099661871
30
0
11
2400.99244977256
21
2866.99099661871
31
0
0
LINE
8
Základní_vrstva
62
3
10
2400.99244977256
20
2866.99099661871
30
0
11
2401.10644977256
21
2866.82899661871
31
0
0
LINE
8
Základní_vrstva
62
3
10
2401.10644977256
20
2866.82899661871
30
0
11
2401.23844977256
21
2866.69099661871
31
0
0
LINE
8
Základní_vrstva
62
3
10
2401.23844977256
20
2866.69099661871
30
0
11
2401.44244977256
21
2866.67299661871
31
0
0
LINE
8
Základní_vrstva
62
3
10
2401.44244977256
20
2866.67299661871
30
0
11
2401.65244977256
21
2866.69099661871
31
0
0
LINE
8
Základní_vrstva
62
3
10
2401.65244977256
20
2866.69099661871
30
0
11
2401.84444977256
21
2866.63699661871
31
0
0
LINE
8
Základní_vrstva
62
3
10
2401.84444977256
20
2866.63699661871
30
0
11
2402.05444977256
21
2866.61899661871
31
0
0
LINE
8
Základní_vrstva
62
3
10
2402.05444977256
20
2866.61899661871
30
0
11
2402.22244977256
21
2866.73299661871
31
0
0
LINE
8
Základní_vrstva
62
3
10
2402.22244977256
20
2866.73299661871
30
0
11
2402.36044977256
21
2866.87699661871
31
0
0
LINE
8
Základní_vrstva
62
3
10
2402.36044977256
20
2866.87699661871
30
0
11
2402.54644977256
21
2866.96099661871
31
0
0
LINE
8
Základní_vrstva
62
3
10
2402.54644977256
20
2866.96099661871
30
0
11
2402.72044977256
21
2867.08699661871
31
0
0
LINE
8
Základní_vrstva
62
3
10
2402.72044977256
20
2867.08699661871
30
0
11
2402.78044977256
21
2867.29099661871
31
0
0
LINE
8
Základní_vrstva
62
3
10
2402.78044977256
20
2867.29099661871
30
0
11
2402.79244977256
21
2867.49499661871
31
0
0
LINE
8
Základní_vrstva
62
3
10
2402.79244977256
20
2867.49499661871
30
0
11
2402.87644977256
21
2867.68699661871
31
0
0
LINE
8
Základní_vrstva
62
3
10
2402.87644977256
20
2867.68699661871
30
0
11
2402.93044977256
21
2867.86099661871
31
0
0
CIRCLE
8
Základní_vrstva
62
3
10
2401.74844977256
20
2867.76499661871
30
0
40
0.0999999999999091
0
LINE
8
Základní_vrstva
62
3
10
2408.38148102256
20
2869.44849661871
30
0
11
2408.30948102256
21
2869.61649661871
31
0
0
LINE
8
Základní_vrstva
62
3
10
2408.30948102256
20
2869.61649661871
30
0
11
2408.18948102256
21
2869.80249661871
31
0
0
LINE
8
Základní_vrstva
62
3
10
2408.18948102256
20
2869.80249661871
30
0
11
2408.13548102256
21
2870.00649661871
31
0
0
LINE
8
Základní_vrstva
62
3
10
2408.13548102256
20
2870.00649661871
30
0
11
2408.05148102256
21
2870.18649661871
31
0
0
LINE
8
Základní_vrstva
62
3
10
2408.05148102256
20
2870.18649661871
30
0
11
2407.85948102256
21
2870.28249661871
31
0
0
LINE
8
Základní_vrstva
62
3
10
2407.85948102256
20
2870.28249661871
30
0
11
2407.66148102256
21
2870.33649661871
31
0
0
LINE
8
Základní_vrstva
62
3
10
2407.66148102256
20
2870.33649661871
30
0
11
2407.49948102256
21
2870.45049661871
31
0
0
LINE
8
Základní_vrstva
62
3
10
2407.49948102256
20
2870.45049661871
30
0
11
2407.31348102256
21
2870.53449661871
31
0
0
LINE
8
Základní_vrstva
62
3
10
2407.31348102256
20
2870.53449661871
30
0
11
2407.11548102256
21
2870.48049661871
31
0
0
LINE
8
Základní_vrstva
62
3
10
2407.11548102256
20
2870.48049661871
30
0
11
2406.94148102256
21
2870.39649661871
31
0
0
LINE
8
Základní_vrstva
62
3
10
2406.94148102256
20
2870.39649661871
30
0
11
2406.73748102256
21
2870.37849661871
31
0
0
LINE
8
Základní_vrstva
62
3
10
2406.73748102256
20
2870.37849661871
30
0
11
2406.53348102256
21
2870.33049661871
31
0
0
LINE
8
Základní_vrstva
62
3
10
2406.53348102256
20
2870.33049661871
30
0
11
2406.40748102256
21
2870.15649661871
31
0
0
LINE
8
Základní_vrstva
62
3
10
2406.40748102256
20
2870.15649661871
30
0
11
2406.31748102256
21
2869.97049661871
31
0
0
LINE
8
Základní_vrstva
62
3
10
2406.31748102256
20
2869.97049661871
30
0
11
2406.17948102256
21
2869.83249661871
31
0
0
LINE
8
Základní_vrstva
62
3
10
2406.17948102256
20
2869.83249661871
30
0
11
2406.05948102256
21
2869.64649661871
31
0
0
LINE
8
Základní_vrstva
62
3
10
2406.05948102256
20
2869.64649661871
30
0
11
2406.07748102256
21
2869.44249661871
31
0
0
LINE
8
Základní_vrstva
62
3
10
2406.07748102256
20
2869.44249661871
30
0
11
2406.13148102256
21
2869.25649661871
31
0
0
LINE
8
Základní_vrstva
62
3
10
2406.13148102256
20
2869.25649661871
30
0
11
2406.10748102256
21
2869.05849661871
31
0
0
LINE
8
Základní_vrstva
62
3
10
2406.10748102256
20
2869.05849661871
30
0
11
2406.12548102256
21
2868.85449661871
31
0
0
LINE
8
Základní_vrstva
62
3
10
2406.12548102256
20
2868.85449661871
30
0
11
2406.27548102256
21
2868.69849661871
31
0
0
LINE
8
Základní_vrstva
62
3
10
2406.27548102256
20
2868.69849661871
30
0
11
2406.44948102256
21
2868.57849661871
31
0
0
LINE
8
Základní_vrstva
62
3
10
2406.44948102256
20
2868.57849661871
30
0
11
2406.56348102256
21
2868.41649661871
31
0
0
LINE
8
Základní_vrstva
62
3
10
2406.56348102256
20
2868.41649661871
30
0
11
2406.69548102256
21
2868.27849661871
31
0
0
LINE
8
Základní_vrstva
62
3
10
2406.69548102256
20
2868.27849661871
30
0
11
2406.89948102256
21
2868.26049661871
31
0
0
LINE
8
Základní_vrstva
62
3
10
2406.89948102256
20
2868.26049661871
30
0
11
2407.10948102256
21
2868.27849661871
31
0
0
LINE
8
Základní_vrstva
62
3
10
2407.10948102256
20
2868.27849661871
30
0
11
2407.30148102256
21
2868.22449661871
31
0
0
LINE
8
Základní_vrstva
62
3
10
2407.30148102256
20
2868.22449661871
30
0
11
2407.51148102256
21
2868.20649661871
31
0
0
LINE
8
Základní_vrstva
62
3
10
2407.51148102256
20
2868.20649661871
30
0
11
2407.67948102256
21
2868.32049661871
31
0
0
LINE
8
Základní_vrstva
62
3
10
2407.67948102256
20
2868.32049661871
30
0
11
2407.81748102256
21
2868.46449661871
31
0
0
LINE
8
Základní_vrstva
62
3
10
2407.81748102256
20
2868.46449661871
30
0
11
2408.00348102256
21
2868.54849661871
31
0
0
LINE
8
Základní_vrstva
62
3
10
2408.00348102256
20
2868.54849661871
30
0
11
2408.17748102256
21
2868.67449661871
31
0
0
LINE
8
Základní_vrstva
62
3
10
2408.17748102256
20
2868.67449661871
30
0
11
2408.23748102256
21
2868.87849661871
31
0
0
LINE
8
Základní_vrstva
62
3
10
2408.23748102256
20
2868.87849661871
30
0
11
2408.24948102256
21
2869.08249661871
31
0
0
LINE
8
Základní_vrstva
62
3
10
2408.24948102256
20
2869.08249661871
30
0
11
2408.33348102256
21
2869.27449661871
31
0
0
LINE
8
Základní_vrstva
62
3
10
2408.33348102256
20
2869.27449661871
30
0
11
2408.38748102256
21
2869.44849661871
31
0
0
CIRCLE
8
Základní_vrstva
62
3
10
2407.20548102256
20
2869.35249661871
30
0
40
0.0999999999999091
0
LINE
8
Základní_vrstva
62
3
10
2414.53304352256
20
2871.63130911871
30
0
11
2414.46104352256
21
2871.79930911871
31
0
0
LINE
8
Základní_vrstva
62
3
10
2414.46104352256
20
2871.79930911871
30
0
11
2414.34104352256
21
2871.98530911871
31
0
0
LINE
8
Základní_vrstva
62
3
10
2414.34104352256
20
2871.98530911871
30
0
11
2414.28704352256
21
2872.18930911871
31
0
0
LINE
8
Základní_vrstva
62
3
10
2414.28704352256
20
2872.18930911871
30
0
11
2414.20304352256
21
2872.36930911871
31
0
0
LINE
8
Základní_vrstva
62
3
10
2414.20304352256
20
2872.36930911871
30
0
11
2414.01104352256
21
2872.46530911871
31
0
0
LINE
8
Základní_vrstva
62
3
10
2414.01104352256
20
2872.46530911871
30
0
11
2413.81304352256
21
2872.51930911871
31
0
0
LINE
8
Základní_vrstva
62
3
10
2413.81304352256
20
2872.51930911871
30
0
11
2413.65104352256
21
2872.63330911871
31
0
0
LINE
8
Základní_vrstva
62
3
10
2413.65104352256
20
2872.63330911871
30
0
11
2413.46504352256
21
2872.71730911871
31
0
0
LINE
8
Základní_vrstva
62
3
10
2413.46504352256
20
2872.71730911871
30
0
11
2413.26704352256
21
2872.66330911871
31
0
0
LINE
8
Základní_vrstva
62
3
10
2413.26704352256
20
2872.66330911871
30
0
11
2413.09304352256
21
2872.57930911871
31
0
0
LINE
8
Základní_vrstva
62
3
10
2413.09304352256
20
2872.57930911871
30
0
11
2412.88904352256
21
2872.56130911871
31
0
0
LINE
8
Základní_vrstva
62
3
10
2412.88904352256
20
2872.56130911871
30
0
11
2412.68504352256
21
2872.51330911871
31
0
0
LINE
8
Základní_vrstva
62
3
10
2412.68504352256
20
2872.51330911871
30
0
11
2412.55904352256
21
2872.33930911871
31
0
0
LINE
8
Základní_vrstva
62
3
10
2412.55904352256
20
2872.33930911871
30
0
11
2412.46904352256
21
2872.15330911871
31
0
0
LINE
8
Základní_vrstva
62
3
10
2412.46904352256
20
2872.15330911871
30
0
11
2412.33104352256
21
2872.01530911871
31
0
0
LINE
8
Základní_vrstva
62
3
10
2412.33104352256
20
2872.01530911871
30
0
11
2412.21104352256
21
2871.82930911871
31
0
0
LINE
8
Základní_vrstva
62
3
10
2412.21104352256
20
2871.82930911871
30
0
11
2412.22904352256
21
2871.62530911871
31
0
0
LINE
8
Základní_vrstva
62
3
10
2412.22904352256
20
2871.62530911871
30
0
11
2412.28304352256
21
2871.43930911871
31
0
0
LINE
8
Základní_vrstva
62
3
10
2412.28304352256
20
2871.43930911871
30
0
11
2412.25904352256
21
2871.24130911871
31
0
0
LINE
8
Základní_vrstva
62
3
10
2412.25904352256
20
2871.24130911871
30
0
11
2412.27704352256
21
2871.03730911871
31
0
0
LINE
8
Základní_vrstva
62
3
10
2412.27704352256
20
2871.03730911871
30
0
11
2412.42704352256
21
2870.88130911871
31
0
0
LINE
8
Základní_vrstva
62
3
10
2412.42704352256
20
2870.88130911871
30
0
11
2412.60104352256
21
2870.76130911871
31
0
0
LINE
8
Základní_vrstva
62
3
10
2412.60104352256
20
2870.76130911871
30
0
11
2412.71504352256
21
2870.59930911871
31
0
0
LINE
8
Základní_vrstva
62
3
10
2412.71504352256
20
2870.59930911871
30
0
11
2412.84704352256
21
2870.46130911871
31
0
0
LINE
8
Základní_vrstva
62
3
10
2412.84704352256
20
2870.46130911871
30
0
11
2413.05104352256
21
2870.44330911871
31
0
0
LINE
8
Základní_vrstva
62
3
10
2413.05104352256
20
2870.44330911871
30
0
11
2413.26104352256
21
2870.46130911871
31
0
0
LINE
8
Základní_vrstva
62
3
10
2413.26104352256
20
2870.46130911871
30
0
11
2413.45304352256
21
2870.40730911871
31
0
0
LINE
8
Základní_vrstva
62
3
10
2413.45304352256
20
2870.40730911871
30
0
11
2413.66304352256
21
2870.38930911871
31
0
0
LINE
8
Základní_vrstva
62
3
10
2413.66304352256
20
2870.38930911871
30
0
11
2413.83104352256
21
2870.50330911871
31
0
0
LINE
8
Základní_vrstva
62
3
10
2413.83104352256
20
2870.50330911871
30
0
11
2413.96904352256
21
2870.64730911871
31
0
0
LINE
8
Základní_vrstva
62
3
10
2413.96904352256
20
2870.64730911871
30
0
11
2414.15504352256
21
2870.73130911871
31
0
0
LINE
8
Základní_vrstva
62
3
10
2414.15504352256
20
2870.73130911871
30
0
11
2414.32904352256
21
2870.85730911871
31
0
0
LINE
8
Základní_vrstva
62
3
10
2414.32904352256
20
2870.85730911871
30
0
11
2414.38904352256
21
2871.06130911871
31
0
0
LINE
8
Základní_vrstva
62
3
10
2414.38904352256
20
2871.06130911871
30
0
11
2414.40104352256
21
2871.26530911871
31
0
0
LINE
8
Základní_vrstva
62
3
10
2414.40104352256
20
2871.26530911871
30
0
11
2414.48504352256
21
2871.45730911871
31
0
0
LINE
8
Základní_vrstva
62
3
10
2414.48504352256
20
2871.45730911871
30
0
11
2414.53904352256
21
2871.63130911871
31
0
0
CIRCLE
8
Základní_vrstva
62
3
10
2413.35704352256
20
2871.53530911871
30
0
40
0.0999999999999091
0
LINE
8
Základní_vrstva
62
3
10
2425.84398102256
20
2875.00474661871
30
0
11
2425.77198102256
21
2875.17274661871
31
0
0
LINE
8
Základní_vrstva
62
3
10
2425.77198102256
20
2875.17274661871
30
0
11
2425.65198102256
21
2875.35874661871
31
0
0
LINE
8
Základní_vrstva
62
3
10
2425.65198102256
20
2875.35874661871
30
0
11
2425.59798102256
21
2875.56274661871
31
0
0
LINE
8
Základní_vrstva
62
3
10
2425.59798102256
20
2875.56274661871
30
0
11
2425.51398102256
21
2875.74274661871
31
0
0
LINE
8
Základní_vrstva
62
3
10
2425.51398102256
20
2875.74274661871
30
0
11
2425.32198102256
21
2875.83874661871
31
0
0
LINE
8
Základní_vrstva
62
3
10
2425.32198102256
20
2875.83874661871
30
0
11
2425.12398102256
21
2875.89274661871
31
0
0
LINE
8
Základní_vrstva
62
3
10
2425.12398102256
20
2875.89274661871
30
0
11
2424.96198102256
21
2876.00674661871
31
0
0
LINE
8
Základní_vrstva
62
3
10
2424.96198102256
20
2876.00674661871
30
0
11
2424.77598102256
21
2876.09074661871
31
0
0
LINE
8
Základní_vrstva
62
3
10
2424.77598102256
20
2876.09074661871
30
0
11
2424.57798102256
21
2876.03674661871
31
0
0
LINE
8
Základní_vrstva
62
3
10
2424.57798102256
20
2876.03674661871
30
0
11
2424.40398102256
21
2875.95274661871
31
0
0
LINE
8
Základní_vrstva
62
3
10
2424.40398102256
20
2875.95274661871
30
0
11
2424.19998102256
21
2875.93474661871
31
0
0
LINE
8
Základní_vrstva
62
3
10
2424.19998102256
20
2875.93474661871
30
0
11
2423.99598102256
21
2875.88674661871
31
0
0
LINE
8
Základní_vrstva
62
3
10
2423.99598102256
20
2875.88674661871
30
0
11
2423.86998102256
21
2875.71274661871
31
0
0
LINE
8
Základní_vrstva
62
3
10
2423.86998102256
20
2875.71274661871
30
0
11
2423.77998102256
21
2875.52674661871
31
0
0
LINE
8
Základní_vrstva
62
3
10
2423.77998102256
20
2875.52674661871
30
0
11
2423.64198102256
21
2875.38874661871
31
0
0
LINE
8
Základní_vrstva
62
3
10
2423.64198102256
20
2875.38874661871
30
0
11
2423.52198102256
21
2875.20274661871
31
0
0
LINE
8
Základní_vrstva
62
3
10
2423.52198102256
20
2875.20274661871
30
0
11
2423.53998102256
21
2874.99874661871
31
0
0
LINE
8
Základní_vrstva
62
3
10
2423.53998102256
20
2874.99874661871
30
0
11
2423.59398102256
21
2874.81274661871
31
0
0
LINE
8
Základní_vrstva
62
3
10
2423.59398102256
20
2874.81274661871
30
0
11
2423.56998102256
21
2874.61474661871
31
0
0
LINE
8
Základní_vrstva
62
3
10
2423.56998102256
20
2874.61474661871
30
0
11
2423.58798102256
21
2874.41074661871
31
0
0
LINE
8
Základní_vrstva
62
3
10
2423.58798102256
20
2874.41074661871
30
0
11
2423.73798102256
21
2874.25474661871
31
0
0
LINE
8
Základní_vrstva
62
3
10
2423.73798102256
20
2874.25474661871
30
0
11
2423.91198102256
21
2874.13474661871
31
0
0
LINE
8
Základní_vrstva
62
3
10
2423.91198102256
20
2874.13474661871
30
0
11
2424.02598102256
21
2873.97274661871
31
0
0
LINE
8
Základní_vrstva
62
3
10
2424.02598102256
20
2873.97274661871
30
0
11
2424.15798102256
21
2873.83474661871
31
0
0
LINE
8
Základní_vrstva
62
3
10
2424.15798102256
20
2873.83474661871
30
0
11
2424.36198102256
21
2873.81674661871
31
0
0
LINE
8
Základní_vrstva
62
3
10
2424.36198102256
20
2873.81674661871
30
0
11
2424.57198102256
21
2873.83474661871
31
0
0
LINE
8
Základní_vrstva
62
3
10
2424.57198102256
20
2873.83474661871
30
0
11
2424.76398102256
21
2873.78074661871
31
0
0
LINE
8
Základní_vrstva
62
3
10
2424.76398102256
20
2873.78074661871
30
0
11
2424.97398102256
21
2873.76274661871
31
0
0
LINE
8
Základní_vrstva
62
3
10
2424.97398102256
20
2873.76274661871
30
0
11
2425.14198102256
21
2873.87674661871
31
0
0
LINE
8
Základní_vrstva
62
3
10
2425.14198102256
20
2873.87674661871
30
0
11
2425.27998102256
21
2874.02074661871
31
0
0
LINE
8
Základní_vrstva
62
3
10
2425.27998102256
20
2874.02074661871
30
0
11
2425.46598102256
21
2874.10474661871
31
0
0
LINE
8
Základní_vrstva
62
3
10
2425.46598102256
20
2874.10474661871
30
0
11
2425.63998102256
21
2874.23074661871
31
0
0
LINE
8
Základní_vrstva
62
3
10
2425.63998102256
20
2874.23074661871
30
0
11
2425.69998102256
21
2874.43474661871
31
0
0
LINE
8
Základní_vrstva
62
3
10
2425.69998102256
20
2874.43474661871
30
0
11
2425.71198102256
21
2874.63874661871
31
0
0
LINE
8
Základní_vrstva
62
3
10
2425.71198102256
20
2874.63874661871
30
0
11
2425.79598102256
21
2874.83074661871
31
0
0
LINE
8
Základní_vrstva
62
3
10
2425.79598102256
20
2874.83074661871
30
0
11
2425.84998102256
21
2875.00474661871
31
0
0
CIRCLE
8
Základní_vrstva
62
3
10
2424.66798102256
20
2874.90874661871
30
0
40
0.0999999999999091
0
LINE
8
Základní_vrstva
62
3
10
2438.14710602256
20
2878.87427786871
30
0
11
2438.07510602256
21
2879.04227786871
31
0
0
LINE
8
Základní_vrstva
62
3
10
2438.07510602256
20
2879.04227786871
30
0
11
2437.95510602256
21
2879.22827786871
31
0
0
LINE
8
Základní_vrstva
62
3
10
2437.95510602256
20
2879.22827786871
30
0
11
2437.90110602256
21
2879.43227786871
31
0
0
LINE
8
Základní_vrstva
62
3
10
2437.90110602256
20
2879.43227786871
30
0
11
2437.81710602256
21
2879.61227786871
31
0
0
LINE
8
Základní_vrstva
62
3
10
2437.81710602256
20
2879.61227786871
30
0
11
2437.62510602256
21
2879.70827786871
31
0
0
LINE
8
Základní_vrstva
62
3
10
2437.62510602256
20
2879.70827786871
30
0
11
2437.42710602256
21
2879.76227786871
31
0
0
LINE
8
Základní_vrstva
62
3
10
2437.42710602256
20
2879.76227786871
30
0
11
2437.26510602256
21
2879.87627786871
31
0
0
LINE
8
Základní_vrstva
62
3
10
2437.26510602256
20
2879.87627786871
30
0
11
2437.07910602256
21
2879.96027786871
31
0
0
LINE
8
Základní_vrstva
62
3
10
2437.07910602256
20
2879.96027786871
30
0
11
2436.88110602256
21
2879.90627786871
31
0
0
LINE
8
Základní_vrstva
62
3
10
2436.88110602256
20
2879.90627786871
30
0
11
2436.70710602256
21
2879.82227786871
31
0
0
LINE
8
Základní_vrstva
62
3
10
2436.70710602256
20
2879.82227786871
30
0
11
2436.50310602256
21
2879.80427786871
31
0
0
LINE
8
Základní_vrstva
62
3
10
2436.50310602256
20
2879.80427786871
30
0
11
2436.29910602256
21
2879.75627786871
31
0
0
LINE
8
Základní_vrstva
62
3
10
2436.29910602256
20
2879.75627786871
30
0
11
2436.17310602256
21
2879.58227786871
31
0
0
LINE
8
Základní_vrstva
62
3
10
2436.17310602256
20
2879.58227786871
30
0
11
2436.08310602256
21
2879.39627786871
31
0
0
LINE
8
Základní_vrstva
62
3
10
2436.08310602256
20
2879.39627786871
30
0
11
2435.94510602256
21
2879.25827786871
31
0
0
LINE
8
Základní_vrstva
62
3
10
2435.94510602256
20
2879.25827786871
30
0
11
2435.82510602256
21
2879.07227786871
31
0
0
LINE
8
Základní_vrstva
62
3
10
2435.82510602256
20
2879.07227786871
30
0
11
2435.84310602256
21
2878.86827786871
31
0
0
LINE
8
Základní_vrstva
62
3
10
2435.84310602256
20
2878.86827786871
30
0
11
2435.89710602256
21
2878.68227786871
31
0
0
LINE
8
Základní_vrstva
62
3
10
2435.89710602256
20
2878.68227786871
30
0
11
2435.87310602256
21
2878.48427786871
31
0
0
LINE
8
Základní_vrstva
62
3
10
2435.87310602256
20
2878.48427786871
30
0
11
2435.89110602256
21
2878.28027786871
31
0
0
LINE
8
Základní_vrstva
62
3
10
2435.89110602256
20
2878.28027786871
30
0
11
2436.04110602256
21
2878.12427786871
31
0
0
LINE
8
Základní_vrstva
62
3
10
2436.04110602256
20
2878.12427786871
30
0
11
2436.21510602256
21
2878.00427786871
31
0
0
LINE
8
Základní_vrstva
62
3
10
2436.21510602256
20
2878.00427786871
30
0
11
2436.32910602256
21
2877.84227786871
31
0
0
LINE
8
Základní_vrstva
62
3
10
2436.32910602256
20
2877.84227786871
30
0
11
2436.46110602256
21
2877.70427786871
31
0
0
LINE
8
Základní_vrstva
62
3
10
2436.46110602256
20
2877.70427786871
30
0
11
2436.66510602256
21
2877.68627786871
31
0
0
LINE
8
Základní_vrstva
62
3
10
2436.66510602256
20
2877.68627786871
30
0
11
2436.87510602256
21
2877.70427786871
31
0
0
LINE
8
Základní_vrstva
62
3
10
2436.87510602256
20
2877.70427786871
30
0
11
2437.06710602256
21
2877.65027786871
31
0
0
LINE
8
Základní_vrstva
62
3
10
2437.06710602256
20
2877.65027786871
30
0
11
2437.27710602256
21
2877.63227786871
31
0
0
LINE
8
Základní_vrstva
62
3
10
2437.27710602256
20
2877.63227786871
30
0
11
2437.44510602256
21
2877.74627786871
31
0
0
LINE
8
Základní_vrstva
62
3
10
2437.44510602256
20
2877.74627786871
30
0
11
2437.58310602256
21
2877.89027786871
31
0
0
LINE
8
Základní_vrstva
62
3
10
2437.58310602256
20
2877.89027786871
30
0
11
2437.76910602256
21
2877.97427786871
31
0
0
LINE
8
Základní_vrstva
62
3
10
2437.76910602256
20
2877.97427786871
30
0
11
2437.94310602256
21
2878.10027786871
31
0
0
LINE
8
Základní_vrstva
62
3
10
2437.94310602256
20
2878.10027786871
30
0
11
2438.00310602256
21
2878.30427786871
31
0
0
LINE
8
Základní_vrstva
62
3
10
2438.00310602256
20
2878.30427786871
30
0
11
2438.01510602256
21
2878.50827786871
31
0
0
LINE
8
Základní_vrstva
62
3
10
2438.01510602256
20
2878.50827786871
30
0
11
2438.09910602256
21
2878.70027786871
31
0
0
LINE
8
Základní_vrstva
62
3
10
2438.09910602256
20
2878.70027786871
30
0
11
2438.15310602256
21
2878.87427786871
31
0
0
CIRCLE
8
Základní_vrstva
62
3
10
2436.97110602256
20
2878.77827786871
30
0
40
0.0999999999999091
0
LINE
8
Základní_vrstva
62
3
10
2444.19944977256
20
2880.95787161871
30
0
11
2444.12744977256
21
2881.12587161871
31
0
0
LINE
8
Základní_vrstva
62
3
10
2444.12744977256
20
2881.12587161871
30
0
11
2444.00744977256
21
2881.31187161871
31
0
0
LINE
8
Základní_vrstva
62
3
10
2444.00744977256
20
2881.31187161871
30
0
11
2443.95344977256
21
2881.51587161871
31
0
0
LINE
8
Základní_vrstva
62
3
10
2443.95344977256
20
2881.51587161871
30
0
11
2443.86944977256
21
2881.69587161871
31
0
0
LINE
8
Základní_vrstva
62
3
10
2443.86944977256
20
2881.69587161871
30
0
11
2443.67744977256
21
2881.79187161871
31
0
0
LINE
8
Základní_vrstva
62
3
10
2443.67744977256
20
2881.79187161871
30
0
11
2443.47944977256
21
2881.84587161871
31
0
0
LINE
8
Základní_vrstva
62
3
10
2443.47944977256
20
2881.84587161871
30
0
11
2443.31744977256
21
2881.95987161871
31
0
0
LINE
8
Základní_vrstva
62
3
10
2443.31744977256
20
2881.95987161871
30
0
11
2443.13144977256
21
2882.04387161871
31
0
0
LINE
8
Základní_vrstva
62
3
10
2443.13144977256
20
2882.04387161871
30
0
11
2442.93344977256
21
2881.98987161871
31
0
0
LINE
8
Základní_vrstva
62
3
10
2442.93344977256
20
2881.98987161871
30
0
11
2442.75944977256
21
2881.90587161871
31
0
0
LINE
8
Základní_vrstva
62
3
10
2442.75944977256
20
2881.90587161871
30
0
11
2442.55544977256
21
2881.88787161871
31
0
0
LINE
8
Základní_vrstva
62
3
10
2442.55544977256
20
2881.88787161871
30
0
11
2442.35144977256
21
2881.83987161871
31
0
0
LINE
8
Základní_vrstva
62
3
10
2442.35144977256
20
2881.83987161871
30
0
11
2442.22544977256
21
2881.66587161871
31
0
0
LINE
8
Základní_vrstva
62
3
10
2442.22544977256
20
2881.66587161871
30
0
11
2442.13544977256
21
2881.47987161871
31
0
0
LINE
8
Základní_vrstva
62
3
10
2442.13544977256
20
2881.47987161871
30
0
11
2441.99744977256
21
2881.34187161871
31
0
0
LINE
8
Základní_vrstva
62
3
10
2441.99744977256
20
2881.34187161871
30
0
11
2441.87744977256
21
2881.15587161871
31
0
0
LINE
8
Základní_vrstva
62
3
10
2441.87744977256
20
2881.15587161871
30
0
11
2441.89544977256
21
2880.95187161871
31
0
0
LINE
8
Základní_vrstva
62
3
10
2441.89544977256
20
2880.95187161871
30
0
11
2441.94944977256
21
2880.76587161871
31
0
0
LINE
8
Základní_vrstva
62
3
10
2441.94944977256
20
2880.76587161871
30
0
11
2441.92544977256
21
2880.56787161871
31
0
0
LINE
8
Základní_vrstva
62
3
10
2441.92544977256
20
2880.56787161871
30
0
11
2441.94344977256
21
2880.36387161871
31
0
0
LINE
8
Základní_vrstva
62
3
10
2441.94344977256
20
2880.36387161871
30
0
11
2442.09344977256
21
2880.20787161871
31
0
0
LINE
8
Základní_vrstva
62
3
10
2442.09344977256
20
2880.20787161871
30
0
11
2442.26744977256
21
2880.08787161871
31
0
0
LINE
8
Základní_vrstva
62
3
10
2442.26744977256
20
2880.08787161871
30
0
11
2442.38144977256
21
2879.92587161871
31
0
0
LINE
8
Základní_vrstva
62
3
10
2442.38144977256
20
2879.92587161871
30
0
11
2442.51344977256
21
2879.78787161871
31
0
0
LINE
8
Základní_vrstva
62
3
10
2442.51344977256
20
2879.78787161871
30
0
11
2442.71744977256
21
2879.76987161871
31
0
0
LINE
8
Základní_vrstva
62
3
10
2442.71744977256
20
2879.76987161871
30
0
11
2442.92744977256
21
2879.78787161871
31
0
0
LINE
8
Základní_vrstva
62
3
10
2442.92744977256
20
2879.78787161871
30
0
11
2443.11944977256
21
2879.73387161871
31
0
0
LINE
8
Základní_vrstva
62
3
10
2443.11944977256
20
2879.73387161871
30
0
11
2443.32944977256
21
2879.71587161871
31
0
0
LINE
8
Základní_vrstva
62
3
10
2443.32944977256
20
2879.71587161871
30
0
11
2443.49744977256
21
2879.82987161871
31
0
0
LINE
8
Základní_vrstva
62
3
10
2443.49744977256
20
2879.82987161871
30
0
11
2443.63544977256
21
2879.97387161871
31
0
0
LINE
8
Základní_vrstva
62
3
10
2443.63544977256
20
2879.97387161871
30
0
11
2443.82144977256
21
2880.05787161871
31
0
0
LINE
8
Základní_vrstva
62
3
10
2443.82144977256
20
2880.05787161871
30
0
11
2443.99544977256
21
2880.18387161871
31
0
0
LINE
8
Základní_vrstva
62
3
10
2443.99544977256
20
2880.18387161871
30
0
11
2444.05544977256
21
2880.38787161871
31
0
0
LINE
8
Základní_vrstva
62
3
10
2444.05544977256
20
2880.38787161871
30
0
11
2444.06744977256
21
2880.59187161871
31
0
0
LINE
8
Základní_vrstva
62
3
10
2444.06744977256
20
2880.59187161871
30
0
11
2444.15144977256
21
2880.78387161871
31
0
0
LINE
8
Základní_vrstva
62
3
10
2444.15144977256
20
2880.78387161871
30
0
11
2444.20544977256
21
2880.95787161871
31
0
0
CIRCLE
8
Základní_vrstva
62
3
10
2443.02344977256
20
2880.86187161871
30
0
40
0.0999999999999091
0
LINE
8
Základní_vrstva
62
3
10
2450.35101227256
20
2882.64459036871
30
0
11
2450.27901227256
21
2882.81259036871
31
0
0
LINE
8
Základní_vrstva
62
3
10
2450.27901227256
20
2882.81259036871
30
0
11
2450.15901227256
21
2882.99859036871
31
0
0
LINE
8
Základní_vrstva
62
3
10
2450.15901227256
20
2882.99859036871
30
0
11
2450.10501227256
21
2883.20259036871
31
0
0
LINE
8
Základní_vrstva
62
3
10
2450.10501227256
20
2883.20259036871
30
0
11
2450.02101227256
21
2883.38259036871
31
0
0
LINE
8
Základní_vrstva
62
3
10
2450.02101227256
20
2883.38259036871
30
0
11
2449.82901227256
21
2883.47859036871
31
0
0
LINE
8
Základní_vrstva
62
3
10
2449.82901227256
20
2883.47859036871
30
0
11
2449.63101227256
21
2883.53259036871
31
0
0
LINE
8
Základní_vrstva
62
3
10
2449.63101227256
20
2883.53259036871
30
0
11
2449.46901227256
21
2883.64659036871
31
0
0
LINE
8
Základní_vrstva
62
3
10
2449.46901227256
20
2883.64659036871
30
0
11
2449.28301227256
21
2883.73059036871
31
0
0
LINE
8
Základní_vrstva
62
3
10
2449.28301227256
20
2883.73059036871
30
0
11
2449.08501227256
21
2883.67659036871
31
0
0
LINE
8
Základní_vrstva
62
3
10
2449.08501227256
20
2883.67659036871
30
0
11
2448.91101227256
21
2883.59259036871
31
0
0
LINE
8
Základní_vrstva
62
3
10
2448.91101227256
20
2883.59259036871
30
0
11
2448.70701227256
21
2883.57459036871
31
0
0
LINE
8
Základní_vrstva
62
3
10
2448.70701227256
20
2883.57459036871
30
0
11
2448.50301227256
21
2883.52659036871
31
0
0
LINE
8
Základní_vrstva
62
3
10
2448.50301227256
20
2883.52659036871
30
0
11
2448.37701227256
21
2883.35259036871
31
0
0
LINE
8
Základní_vrstva
62
3
10
2448.37701227256
20
2883.35259036871
30
0
11
2448.28701227256
21
2883.16659036871
31
0
0
LINE
8
Základní_vrstva
62
3
10
2448.28701227256
20
2883.16659036871
30
0
11
2448.14901227256
21
2883.02859036871
31
0
0
LINE
8
Základní_vrstva
62
3
10
2448.14901227256
20
2883.02859036871
30
0
11
2448.02901227256
21
2882.84259036871
31
0
0
LINE
8
Základní_vrstva
62
3
10
2448.02901227256
20
2882.84259036871
30
0
11
2448.04701227256
21
2882.63859036871
31
0
0
LINE
8
Základní_vrstva
62
3
10
2448.04701227256
20
2882.63859036871
30
0
11
2448.10101227256
21
2882.45259036871
31
0
0
LINE
8
Základní_vrstva
62
3
10
2448.10101227256
20
2882.45259036871
30
0
11
2448.07701227256
21
2882.25459036871
31
0
0
LINE
8
Základní_vrstva
62
3
10
2448.07701227256
20
2882.25459036871
30
0
11
2448.09501227256
21
2882.05059036871
31
0
0
LINE
8
Základní_vrstva
62
3
10
2448.09501227256
20
2882.05059036871
30
0
11
2448.24501227256
21
2881.89459036871
31
0
0
LINE
8
Základní_vrstva
62
3
10
2448.24501227256
20
2881.89459036871
30
0
11
2448.41901227256
21
2881.77459036871
31
0
0
LINE
8
Základní_vrstva
62
3
10
2448.41901227256
20
2881.77459036871
30
0
11
2448.53301227256
21
2881.61259036871
31
0
0
LINE
8
Základní_vrstva
62
3
10
2448.53301227256
20
2881.61259036871
30
0
11
2448.66501227256
21
2881.47459036871
31
0
0
LINE
8
Základní_vrstva
62
3
10
2448.66501227256
20
2881.47459036871
30
0
11
2448.86901227256
21
2881.45659036871
31
0
0
LINE
8
Základní_vrstva
62
3
10
2448.86901227256
20
2881.45659036871
30
0
11
2449.07901227256
21
2881.47459036871
31
0
0
LINE
8
Základní_vrstva
62
3
10
2449.07901227256
20
2881.47459036871
30
0
11
2449.27101227256
21
2881.42059036871
31
0
0
LINE
8
Základní_vrstva
62
3
10
2449.27101227256
20
2881.42059036871
30
0
11
2449.48101227256
21
2881.40259036871
31
0
0
LINE
8
Základní_vrstva
62
3
10
2449.48101227256
20
2881.40259036871
30
0
11
2449.64901227256
21
2881.51659036871
31
0
0
LINE
8
Základní_vrstva
62
3
10
2449.64901227256
20
2881.51659036871
30
0
11
2449.78701227256
21
2881.66059036871
31
0
0
LINE
8
Základní_vrstva
62
3
10
2449.78701227256
20
2881.66059036871
30
0
11
2449.97301227256
21
2881.74459036871
31
0
0
LINE
8
Základní_vrstva
62
3
10
2449.97301227256
20
2881.74459036871
30
0
11
2450.14701227256
21
2881.87059036871
31
0
0
LINE
8
Základní_vrstva
62
3
10
2450.14701227256
20
2881.87059036871
30
0
11
2450.20701227256
21
2882.07459036871
31
0
0
LINE
8
Základní_vrstva
62
3
10
2450.20701227256
20
2882.07459036871
30
0
11
2450.21901227256
21
2882.27859036871
31
0
0
LINE
8
Základní_vrstva
62
3
10
2450.21901227256
20
2882.27859036871
30
0
11
2450.30301227256
21
2882.47059036871
31
0
0
LINE
8
Základní_vrstva
62
3
10
2450.30301227256
20
2882.47059036871
30
0
11
2450.35701227256
21
2882.64459036871
31
0
0
CIRCLE
8
Základní_vrstva
62
3
10
2449.17501227256
20
2882.54859036871
30
0
40
0.0999999999999091
0
LINE
8
Základní_vrstva
62
3
10
2455.51038727256
20
2884.03365286871
30
0
11
2455.43838727256
21
2884.20165286871
31
0
0
LINE
8
Základní_vrstva
62
3
10
2455.43838727256
20
2884.20165286871
30
0
11
2455.31838727256
21
2884.38765286871
31
0
0
LINE
8
Základní_vrstva
62
3
10
2455.31838727256
20
2884.38765286871
30
0
11
2455.26438727256
21
2884.59165286871
31
0
0
LINE
8
Základní_vrstva
62
3
10
2455.26438727256
20
2884.59165286871
30
0
11
2455.18038727256
21
2884.77165286871
31
0
0
LINE
8
Základní_vrstva
62
3
10
2455.18038727256
20
2884.77165286871
30
0
11
2454.98838727256
21
2884.86765286871
31
0
0
LINE
8
Základní_vrstva
62
3
10
2454.98838727256
20
2884.86765286871
30
0
11
2454.79038727256
21
2884.92165286871
31
0
0
LINE
8
Základní_vrstva
62
3
10
2454.79038727256
20
2884.92165286871
30
0
11
2454.62838727256
21
2885.03565286871
31
0
0
LINE
8
Základní_vrstva
62
3
10
2454.62838727256
20
2885.03565286871
30
0
11
2454.44238727256
21
2885.11965286871
31
0
0
LINE
8
Základní_vrstva
62
3
10
2454.44238727256
20
2885.11965286871
30
0
11
2454.24438727256
21
2885.06565286871
31
0
0
LINE
8
Základní_vrstva
62
3
10
2454.24438727256
20
2885.06565286871
30
0
11
2454.07038727256
21
2884.98165286871
31
0
0
LINE
8
Základní_vrstva
62
3
10
2454.07038727256
20
2884.98165286871
30
0
11
2453.86638727256
21
2884.96365286871
31
0
0
LINE
8
Základní_vrstva
62
3
10
2453.86638727256
20
2884.96365286871
30
0
11
2453.66238727256
21
2884.91565286871
31
0
0
LINE
8
Základní_vrstva
62
3
10
2453.66238727256
20
2884.91565286871
30
0
11
2453.53638727256
21
2884.74165286871
31
0
0
LINE
8
Základní_vrstva
62
3
10
2453.53638727256
20
2884.74165286871
30
0
11
2453.44638727256
21
2884.55565286871
31
0
0
LINE
8
Základní_vrstva
62
3
10
2453.44638727256
20
2884.55565286871
30
0
11
2453.30838727256
21
2884.41765286871
31
0
0
LINE
8
Základní_vrstva
62
3
10
2453.30838727256
20
2884.41765286871
30
0
11
2453.18838727256
21
2884.23165286871
31
0
0
LINE
8
Základní_vrstva
62
3
10
2453.18838727256
20
2884.23165286871
30
0
11
2453.20638727256
21
2884.02765286871
31
0
0
LINE
8
Základní_vrstva
62
3
10
2453.20638727256
20
2884.02765286871
30
0
11
2453.26038727256
21
2883.84165286871
31
0
0
LINE
8
Základní_vrstva
62
3
10
2453.26038727256
20
2883.84165286871
30
0
11
2453.23638727256
21
2883.64365286871
31
0
0
LINE
8
Základní_vrstva
62
3
10
2453.23638727256
20
2883.64365286871
30
0
11
2453.25438727256
21
2883.43965286871
31
0
0
LINE
8
Základní_vrstva
62
3
10
2453.25438727256
20
2883.43965286871
30
0
11
2453.40438727256
21
2883.28365286871
31
0
0
LINE
8
Základní_vrstva
62
3
10
2453.40438727256
20
2883.28365286871
30
0
11
2453.57838727256
21
2883.16365286871
31
0
0
LINE
8
Základní_vrstva
62
3
10
2453.57838727256
20
2883.16365286871
30
0
11
2453.69238727256
21
2883.00165286871
31
0
0
LINE
8
Základní_vrstva
62
3
10
2453.69238727256
20
2883.00165286871
30
0
11
2453.82438727256
21
2882.86365286871
31
0
0
LINE
8
Základní_vrstva
62
3
10
2453.82438727256
20
2882.86365286871
30
0
11
2454.02838727256
21
2882.84565286871
31
0
0
LINE
8
Základní_vrstva
62
3
10
2454.02838727256
20
2882.84565286871
30
0
11
2454.23838727256
21
2882.86365286871
31
0
0
LINE
8
Základní_vrstva
62
3
10
2454.23838727256
20
2882.86365286871
30
0
11
2454.43038727256
21
2882.80965286871
31
0
0
LINE
8
Základní_vrstva
62
3
10
2454.43038727256
20
2882.80965286871
30
0
11
2454.64038727256
21
2882.79165286871
31
0
0
LINE
8
Základní_vrstva
62
3
10
2454.64038727256
20
2882.79165286871
30
0
11
2454.80838727256
21
2882.90565286871
31
0
0
LINE
8
Základní_vrstva
62
3
10
2454.80838727256
20
2882.90565286871
30
0
11
2454.94638727256
21
2883.04965286871
31
0
0
LINE
8
Základní_vrstva
62
3
10
2454.94638727256
20
2883.04965286871
30
0
11
2455.13238727256
21
2883.13365286871
31
0
0
LINE
8
Základní_vrstva
62
3
10
2455.13238727256
20
2883.13365286871
30
0
11
2455.30638727256
21
2883.25965286871
31
0
0
LINE
8
Základní_vrstva
62
3
10
2455.30638727256
20
2883.25965286871
30
0
11
2455.36638727256
21
2883.46365286871
31
0
0
LINE
8
Základní_vrstva
62
3
10
2455.36638727256
20
2883.46365286871
30
0
11
2455.37838727256
21
2883.66765286871
31
0
0
LINE
8
Základní_vrstva
62
3
10
2455.37838727256
20
2883.66765286871
30
0
11
2455.46238727256
21
2883.85965286871
31
0
0
LINE
8
Základní_vrstva
62
3
10
2455.46238727256
20
2883.85965286871
30
0
11
2455.51638727256
21
2884.03365286871
31
0
0
CIRCLE
8
Základní_vrstva
62
3
10
2454.33438727256
20
2883.93765286871
30
0
40
0.0999999999999091
0
LINE
8
Základní_vrstva
62
3
10
2460.57054352256
20
2885.72037161871
30
0
11
2460.49854352256
21
2885.88837161871
31
0
0
LINE
8
Základní_vrstva
62
3
10
2460.49854352256
20
2885.88837161871
30
0
11
2460.37854352256
21
2886.07437161871
31
0
0
LINE
8
Základní_vrstva
62
3
10
2460.37854352256
20
2886.07437161871
30
0
11
2460.32454352256
21
2886.27837161871
31
0
0
LINE
8
Základní_vrstva
62
3
10
2460.32454352256
20
2886.27837161871
30
0
11
2460.24054352256
21
2886.45837161871
31
0
0
LINE
8
Základní_vrstva
62
3
10
2460.24054352256
20
2886.45837161871
30
0
11
2460.04854352256
21
2886.55437161871
31
0
0
LINE
8
Základní_vrstva
62
3
10
2460.04854352256
20
2886.55437161871
30
0
11
2459.85054352256
21
2886.60837161871
31
0
0
LINE
8
Základní_vrstva
62
3
10
2459.85054352256
20
2886.60837161871
30
0
11
2459.68854352256
21
2886.72237161871
31
0
0
LINE
8
Základní_vrstva
62
3
10
2459.68854352256
20
2886.72237161871
30
0
11
2459.50254352256
21
2886.80637161871
31
0
0
LINE
8
Základní_vrstva
62
3
10
2459.50254352256
20
2886.80637161871
30
0
11
2459.30454352256
21
2886.75237161871
31
0
0
LINE
8
Základní_vrstva
62
3
10
2459.30454352256
20
2886.75237161871
30
0
11
2459.13054352256
21
2886.66837161871
31
0
0
LINE
8
Základní_vrstva
62
3
10
2459.13054352256
20
2886.66837161871
30
0
11
2458.92654352256
21
2886.65037161871
31
0
0
LINE
8
Základní_vrstva
62
3
10
2458.92654352256
20
2886.65037161871
30
0
11
2458.72254352256
21
2886.60237161871
31
0
0
LINE
8
Základní_vrstva
62
3
10
2458.72254352256
20
2886.60237161871
30
0
11
2458.59654352256
21
2886.42837161871
31
0
0
LINE
8
Základní_vrstva
62
3
10
2458.59654352256
20
2886.42837161871
30
0
11
2458.50654352256
21
2886.24237161871
31
0
0
LINE
8
Základní_vrstva
62
3
10
2458.50654352256
20
2886.24237161871
30
0
11
2458.36854352256
21
2886.10437161871
31
0
0
LINE
8
Základní_vrstva
62
3
10
2458.36854352256
20
2886.10437161871
30
0
11
2458.24854352256
21
2885.91837161871
31
0
0
LINE
8
Základní_vrstva
62
3
10
2458.24854352256
20
2885.91837161871
30
0
11
2458.26654352256
21
2885.71437161871
31
0
0
LINE
8
Základní_vrstva
62
3
10
2458.26654352256
20
2885.71437161871
30
0
11
2458.32054352256
21
2885.52837161871
31
0
0
LINE
8
Základní_vrstva
62
3
10
2458.32054352256
20
2885.52837161871
30
0
11
2458.29654352256
21
2885.33037161871
31
0
0
LINE
8
Základní_vrstva
62
3
10
2458.29654352256
20
2885.33037161871
30
0
11
2458.31454352256
21
2885.12637161871
31
0
0
LINE
8
Základní_vrstva
62
3
10
2458.31454352256
20
2885.12637161871
30
0
11
2458.46454352256
21
2884.97037161871
31
0
0
LINE
8
Základní_vrstva
62
3
10
2458.46454352256
20
2884.97037161871
30
0
11
2458.63854352256
21
2884.85037161871
31
0
0
LINE
8
Základní_vrstva
62
3
10
2458.63854352256
20
2884.85037161871
30
0
11
2458.75254352256
21
2884.68837161871
31
0
0
LINE
8
Základní_vrstva
62
3
10
2458.75254352256
20
2884.68837161871
30
0
11
2458.88454352256
21
2884.55037161871
31
0
0
LINE
8
Základní_vrstva
62
3
10
2458.88454352256
20
2884.55037161871
30
0
11
2459.08854352256
21
2884.53237161871
31
0
0
LINE
8
Základní_vrstva
62
3
10
2459.08854352256
20
2884.53237161871
30
0
11
2459.29854352256
21
2884.55037161871
31
0
0
LINE
8
Základní_vrstva
62
3
10
2459.29854352256
20
2884.55037161871
30
0
11
2459.49054352256
21
2884.49637161871
31
0
0
LINE
8
Základní_vrstva
62
3
10
2459.49054352256
20
2884.49637161871
30
0
11
2459.70054352256
21
2884.47837161871
31
0
0
LINE
8
Základní_vrstva
62
3
10
2459.70054352256
20
2884.47837161871
30
0
11
2459.86854352256
21
2884.59237161871
31
0
0
LINE
8
Základní_vrstva
62
3
10
2459.86854352256
20
2884.59237161871
30
0
11
2460.00654352256
21
2884.73637161871
31
0
0
LINE
8
Základní_vrstva
62
3
10
2460.00654352256
20
2884.73637161871
30
0
11
2460.19254352256
21
2884.82037161871
31
0
0
LINE
8
Základní_vrstva
62
3
10
2460.19254352256
20
2884.82037161871
30
0
11
2460.36654352256
21
2884.94637161871
31
0
0
LINE
8
Základní_vrstva
62
3
10
2460.36654352256
20
2884.94637161871
30
0
11
2460.42654352256
21
2885.15037161871
31
0
0
LINE
8
Základní_vrstva
62
3
10
2460.42654352256
20
2885.15037161871
30
0
11
2460.43854352256
21
2885.35437161871
31
0
0
LINE
8
Základní_vrstva
62
3
10
2460.43854352256
20
2885.35437161871
30
0
11
2460.52254352256
21
2885.54637161871
31
0
0
LINE
8
Základní_vrstva
62
3
10
2460.52254352256
20
2885.54637161871
30
0
11
2460.57654352256
21
2885.72037161871
31
0
0
CIRCLE
8
Základní_vrstva
62
3
10
2459.39454352256
20
2885.62437161871
30
0
40
0.0999999999999091
0
LINE
8
Základní_vrstva
62
3
10
2466.12679352256
20
2887.30787161871
30
0
11
2466.05479352256
21
2887.47587161871
31
0
0
LINE
8
Základní_vrstva
62
3
10
2466.05479352256
20
2887.47587161871
30
0
11
2465.93479352256
21
2887.66187161871
31
0
0
LINE
8
Základní_vrstva
62
3
10
2465.93479352256
20
2887.66187161871
30
0
11
2465.88079352256
21
2887.86587161871
31
0
0
LINE
8
Základní_vrstva
62
3
10
2465.88079352256
20
2887.86587161871
30
0
11
2465.79679352256
21
2888.04587161871
31
0
0
LINE
8
Základní_vrstva
62
3
10
2465.79679352256
20
2888.04587161871
30
0
11
2465.60479352256
21
2888.14187161871
31
0
0
LINE
8
Základní_vrstva
62
3
10
2465.60479352256
20
2888.14187161871
30
0
11
2465.40679352256
21
2888.19587161871
31
0
0
LINE
8
Základní_vrstva
62
3
10
2465.40679352256
20
2888.19587161871
30
0
11
2465.24479352256
21
2888.30987161871
31
0
0
LINE
8
Základní_vrstva
62
3
10
2465.24479352256
20
2888.30987161871
30
0
11
2465.05879352256
21
2888.39387161871
31
0
0
LINE
8
Základní_vrstva
62
3
10
2465.05879352256
20
2888.39387161871
30
0
11
2464.86079352256
21
2888.33987161871
31
0
0
LINE
8
Základní_vrstva
62
3
10
2464.86079352256
20
2888.33987161871
30
0
11
2464.68679352256
21
2888.25587161871
31
0
0
LINE
8
Základní_vrstva
62
3
10
2464.68679352256
20
2888.25587161871
30
0
11
2464.48279352256
21
2888.23787161871
31
0
0
LINE
8
Základní_vrstva
62
3
10
2464.48279352256
20
2888.23787161871
30
0
11
2464.27879352256
21
2888.18987161871
31
0
0
LINE
8
Základní_vrstva
62
3
10
2464.27879352256
20
2888.18987161871
30
0
11
2464.15279352256
21
2888.01587161871
31
0
0
LINE
8
Základní_vrstva
62
3
10
2464.15279352256
20
2888.01587161871
30
0
11
2464.06279352256
21
2887.82987161871
31
0
0
LINE
8
Základní_vrstva
62
3
10
2464.06279352256
20
2887.82987161871
30
0
11
2463.92479352256
21
2887.69187161871
31
0
0
LINE
8
Základní_vrstva
62
3
10
2463.92479352256
20
2887.69187161871
30
0
11
2463.80479352256
21
2887.50587161871
31
0
0
LINE
8
Základní_vrstva
62
3
10
2463.80479352256
20
2887.50587161871
30
0
11
2463.82279352256
21
2887.30187161871
31
0
0
LINE
8
Základní_vrstva
62
3
10
2463.82279352256
20
2887.30187161871
30
0
11
2463.87679352256
21
2887.11587161871
31
0
0
LINE
8
Základní_vrstva
62
3
10
2463.87679352256
20
2887.11587161871
30
0
11
2463.85279352256
21
2886.91787161871
31
0
0
LINE
8
Základní_vrstva
62
3
10
2463.85279352256
20
2886.91787161871
30
0
11
2463.87079352256
21
2886.71387161871
31
0
0
LINE
8
Základní_vrstva
62
3
10
2463.87079352256
20
2886.71387161871
30
0
11
2464.02079352256
21
2886.55787161871
31
0
0
LINE
8
Základní_vrstva
62
3
10
2464.02079352256
20
2886.55787161871
30
0
11
2464.19479352256
21
2886.43787161871
31
0
0
LINE
8
Základní_vrstva
62
3
10
2464.19479352256
20
2886.43787161871
30
0
11
2464.30879352256
21
2886.27587161871
31
0
0
LINE
8
Základní_vrstva
62
3
10
2464.30879352256
20
2886.27587161871
30
0
11
2464.44079352256
21
2886.13787161871
31
0
0
LINE
8
Základní_vrstva
62
3
10
2464.44079352256
20
2886.13787161871
30
0
11
2464.64479352256
21
2886.11987161871
31
0
0
LINE
8
Základní_vrstva
62
3
10
2464.64479352256
20
2886.11987161871
30
0
11
2464.85479352256
21
2886.13787161871
31
0
0
LINE
8
Základní_vrstva
62
3
10
2464.85479352256
20
2886.13787161871
30
0
11
2465.04679352256
21
2886.08387161871
31
0
0
LINE
8
Základní_vrstva
62
3
10
2465.04679352256
20
2886.08387161871
30
0
11
2465.25679352256
21
2886.06587161871
31
0
0
LINE
8
Základní_vrstva
62
3
10
2465.25679352256
20
2886.06587161871
30
0
11
2465.42479352256
21
2886.17987161871
31
0
0
LINE
8
Základní_vrstva
62
3
10
2465.42479352256
20
2886.17987161871
30
0
11
2465.56279352256
21
2886.32387161871
31
0
0
LINE
8
Základní_vrstva
62
3
10
2465.56279352256
20
2886.32387161871
30
0
11
2465.74879352256
21
2886.40787161871
31
0
0
LINE
8
Základní_vrstva
62
3
10
2465.74879352256
20
2886.40787161871
30
0
11
2465.92279352256
21
2886.53387161871
31
0
0
LINE
8
Základní_vrstva
62
3
10
2465.92279352256
20
2886.53387161871
30
0
11
2465.98279352256
21
2886.73787161871
31
0
0
LINE
8
Základní_vrstva
62
3
10
2465.98279352256
20
2886.73787161871
30
0
11
2465.99479352256
21
2886.94187161871
31
0
0
LINE
8
Základní_vrstva
62
3
10
2465.99479352256
20
2886.94187161871
30
0
11
2466.07879352256
21
2887.13387161871
31
0
0
LINE
8
Základní_vrstva
62
3
10
2466.07879352256
20
2887.13387161871
30
0
11
2466.13279352256
21
2887.30787161871
31
0
0
CIRCLE
8
Základní_vrstva
62
3
10
2464.95079352256
20
2887.21187161871
30
0
40
0.0999999999999091
0
LINE
8
Základní_vrstva
62
3
10
2471.78226227256
20
2888.99459036871
30
0
11
2471.71026227256
21
2889.16259036871
31
0
0
LINE
8
Základní_vrstva
62
3
10
2471.71026227256
20
2889.16259036871
30
0
11
2471.59026227256
21
2889.34859036871
31
0
0
LINE
8
Základní_vrstva
62
3
10
2471.59026227256
20
2889.34859036871
30
0
11
2471.53626227256
21
2889.55259036871
31
0
0
LINE
8
Základní_vrstva
62
3
10
2471.53626227256
20
2889.55259036871
30
0
11
2471.45226227256
21
2889.73259036871
31
0
0
LINE
8
Základní_vrstva
62
3
10
2471.45226227256
20
2889.73259036871
30
0
11
2471.26026227256
21
2889.82859036871
31
0
0
LINE
8
Základní_vrstva
62
3
10
2471.26026227256
20
2889.82859036871
30
0
11
2471.06226227256
21
2889.88259036871
31
0
0
LINE
8
Základní_vrstva
62
3
10
2471.06226227256
20
2889.88259036871
30
0
11
2470.90026227256
21
2889.99659036871
31
0
0
LINE
8
Základní_vrstva
62
3
10
2470.90026227256
20
2889.99659036871
30
0
11
2470.71426227256
21
2890.08059036871
31
0
0
LINE
8
Základní_vrstva
62
3
10
2470.71426227256
20
2890.08059036871
30
0
11
2470.51626227256
21
2890.02659036871
31
0
0
LINE
8
Základní_vrstva
62
3
10
2470.51626227256
20
2890.02659036871
30
0
11
2470.34226227256
21
2889.94259036871
31
0
0
LINE
8
Základní_vrstva
62
3
10
2470.34226227256
20
2889.94259036871
30
0
11
2470.13826227256
21
2889.92459036871
31
0
0
LINE
8
Základní_vrstva
62
3
10
2470.13826227256
20
2889.92459036871
30
0
11
2469.93426227256
21
2889.87659036871
31
0
0
LINE
8
Základní_vrstva
62
3
10
2469.93426227256
20
2889.87659036871
30
0
11
2469.80826227256
21
2889.70259036871
31
0
0
LINE
8
Základní_vrstva
62
3
10
2469.80826227256
20
2889.70259036871
30
0
11
2469.71826227256
21
2889.51659036871
31
0
0
LINE
8
Základní_vrstva
62
3
10
2469.71826227256
20
2889.51659036871
30
0
11
2469.58026227256
21
2889.37859036871
31
0
0
LINE
8
Základní_vrstva
62
3
10
2469.58026227256
20
2889.37859036871
30
0
11
2469.46026227256
21
2889.19259036871
31
0
0
LINE
8
Základní_vrstva
62
3
10
2469.46026227256
20
2889.19259036871
30
0
11
2469.47826227256
21
2888.98859036871
31
0
0
LINE
8
Základní_vrstva
62
3
10
2469.47826227256
20
2888.98859036871
30
0
11
2469.53226227256
21
2888.80259036871
31
0
0
LINE
8
Základní_vrstva
62
3
10
2469.53226227256
20
2888.80259036871
30
0
11
2469.50826227256
21
2888.60459036871
31
0
0
LINE
8
Základní_vrstva
62
3
10
2469.50826227256
20
2888.60459036871
30
0
11
2469.52626227256
21
2888.40059036871
31
0
0
LINE
8
Základní_vrstva
62
3
10
2469.52626227256
20
2888.40059036871
30
0
11
2469.67626227256
21
2888.24459036871
31
0
0
LINE
8
Základní_vrstva
62
3
10
2469.67626227256
20
2888.24459036871
30
0
11
2469.85026227256
21
2888.12459036871
31
0
0
LINE
8
Základní_vrstva
62
3
10
2469.85026227256
20
2888.12459036871
30
0
11
2469.96426227256
21
2887.96259036871
31
0
0
LINE
8
Základní_vrstva
62
3
10
2469.96426227256
20
2887.96259036871
30
0
11
2470.09626227256
21
2887.82459036871
31
0
0
LINE
8
Základní_vrstva
62
3
10
2470.09626227256
20
2887.82459036871
30
0
11
2470.30026227256
21
2887.80659036871
31
0
0
LINE
8
Základní_vrstva
62
3
10
2470.30026227256
20
2887.80659036871
30
0
11
2470.51026227256
21
2887.82459036871
31
0
0
LINE
8
Základní_vrstva
62
3
10
2470.51026227256
20
2887.82459036871
30
0
11
2470.70226227256
21
2887.77059036871
31
0
0
LINE
8
Základní_vrstva
62
3
10
2470.70226227256
20
2887.77059036871
30
0
11
2470.91226227256
21
2887.75259036871
31
0
0
LINE
8
Základní_vrstva
62
3
10
2470.91226227256
20
2887.75259036871
30
0
11
2471.08026227256
21
2887.86659036871
31
0
0
LINE
8
Základní_vrstva
62
3
10
2471.08026227256
20
2887.86659036871
30
0
11
2471.21826227256
21
2888.01059036871
31
0
0
LINE
8
Základní_vrstva
62
3
10
2471.21826227256
20
2888.01059036871
30
0
11
2471.40426227256
21
2888.09459036871
31
0
0
LINE
8
Základní_vrstva
62
3
10
2471.40426227256
20
2888.09459036871
30
0
11
2471.57826227256
21
2888.22059036871
31
0
0
LINE
8
Základní_vrstva
62
3
10
2471.57826227256
20
2888.22059036871
30
0
11
2471.63826227256
21
2888.42459036871
31
0
0
LINE
8
Základní_vrstva
62
3
10
2471.63826227256
20
2888.42459036871
30
0
11
2471.65026227256
21
2888.62859036871
31
0
0
LINE
8
Základní_vrstva
62
3
10
2471.65026227256
20
2888.62859036871
30
0
11
2471.73426227256
21
2888.82059036871
31
0
0
LINE
8
Základní_vrstva
62
3
10
2471.73426227256
20
2888.82059036871
30
0
11
2471.78826227256
21
2888.99459036871
31
0
0
CIRCLE
8
Základní_vrstva
62
3
10
2470.60626227256
20
2888.89859036871
30
0
40
0.0999999999999091
0
LINE
8
Základní_vrstva
62
3
10
2477.63616852256
20
2890.87974661871
30
0
11
2477.56416852256
21
2891.04774661871
31
0
0
LINE
8
Základní_vrstva
62
3
10
2477.56416852256
20
2891.04774661871
30
0
11
2477.44416852256
21
2891.23374661871
31
0
0
LINE
8
Základní_vrstva
62
3
10
2477.44416852256
20
2891.23374661871
30
0
11
2477.39016852256
21
2891.43774661871
31
0
0
LINE
8
Základní_vrstva
62
3
10
2477.39016852256
20
2891.43774661871
30
0
11
2477.30616852256
21
2891.61774661871
31
0
0
LINE
8
Základní_vrstva
62
3
10
2477.30616852256
20
2891.61774661871
30
0
11
2477.11416852256
21
2891.71374661871
31
0
0
LINE
8
Základní_vrstva
62
3
10
2477.11416852256
20
2891.71374661871
30
0
11
2476.91616852256
21
2891.76774661871
31
0
0
LINE
8
Základní_vrstva
62
3
10
2476.91616852256
20
2891.76774661871
30
0
11
2476.75416852256
21
2891.88174661871
31
0
0
LINE
8
Základní_vrstva
62
3
10
2476.75416852256
20
2891.88174661871
30
0
11
2476.56816852256
21
2891.96574661871
31
0
0
LINE
8
Základní_vrstva
62
3
10
2476.56816852256
20
2891.96574661871
30
0
11
2476.37016852256
21
2891.91174661871
31
0
0
LINE
8
Základní_vrstva
62
3
10
2476.37016852256
20
2891.91174661871
30
0
11
2476.19616852256
21
2891.82774661871
31
0
0
LINE
8
Základní_vrstva
62
3
10
2476.19616852256
20
2891.82774661871
30
0
11
2475.99216852256
21
2891.80974661871
31
0
0
LINE
8
Základní_vrstva
62
3
10
2475.99216852256
20
2891.80974661871
30
0
11
2475.78816852256
21
2891.76174661871
31
0
0
LINE
8
Základní_vrstva
62
3
10
2475.78816852256
20
2891.76174661871
30
0
11
2475.66216852256
21
2891.58774661871
31
0
0
LINE
8
Základní_vrstva
62
3
10
2475.66216852256
20
2891.58774661871
30
0
11
2475.57216852256
21
2891.40174661871
31
0
0
LINE
8
Základní_vrstva
62
3
10
2475.57216852256
20
2891.40174661871
30
0
11
2475.43416852256
21
2891.26374661871
31
0
0
LINE
8
Základní_vrstva
62
3
10
2475.43416852256
20
2891.26374661871
30
0
11
2475.31416852256
21
2891.07774661871
31
0
0
LINE
8
Základní_vrstva
62
3
10
2475.31416852256
20
2891.07774661871
30
0
11
2475.33216852256
21
2890.87374661871
31
0
0
LINE
8
Základní_vrstva
62
3
10
2475.33216852256
20
2890.87374661871
30
0
11
2475.38616852256
21
2890.68774661871
31
0
0
LINE
8
Základní_vrstva
62
3
10
2475.38616852256
20
2890.68774661871
30
0
11
2475.36216852256
21
2890.48974661871
31
0
0
LINE
8
Základní_vrstva
62
3
10
2475.36216852256
20
2890.48974661871
30
0
11
2475.38016852256
21
2890.28574661871
31
0
0
LINE
8
Základní_vrstva
62
3
10
2475.38016852256
20
2890.28574661871
30
0
11
2475.53016852256
21
2890.12974661871
31
0
0
LINE
8
Základní_vrstva
62
3
10
2475.53016852256
20
2890.12974661871
30
0
11
2475.70416852256
21
2890.00974661871
31
0
0
LINE
8
Základní_vrstva
62
3
10
2475.70416852256
20
2890.00974661871
30
0
11
2475.81816852256
21
2889.84774661871
31
0
0
LINE
8
Základní_vrstva
62
3
10
2475.81816852256
20
2889.84774661871
30
0
11
2475.95016852256
21
2889.70974661871
31
0
0
LINE
8
Základní_vrstva
62
3
10
2475.95016852256
20
2889.70974661871
30
0
11
2476.15416852256
21
2889.69174661871
31
0
0
LINE
8
Základní_vrstva
62
3
10
2476.15416852256
20
2889.69174661871
30
0
11
2476.36416852256
21
2889.70974661871
31
0
0
LINE
8
Základní_vrstva
62
3
10
2476.36416852256
20
2889.70974661871
30
0
11
2476.55616852256
21
2889.65574661871
31
0
0
LINE
8
Základní_vrstva
62
3
10
2476.55616852256
20
2889.65574661871
30
0
11
2476.76616852256
21
2889.63774661871
31
0
0
LINE
8
Základní_vrstva
62
3
10
2476.76616852256
20
2889.63774661871
30
0
11
2476.93416852256
21
2889.75174661871
31
0
0
LINE
8
Základní_vrstva
62
3
10
2476.93416852256
20
2889.75174661871
30
0
11
2477.07216852256
21
2889.89574661871
31
0
0
LINE
8
Základní_vrstva
62
3
10
2477.07216852256
20
2889.89574661871
30
0
11
2477.25816852256
21
2889.97974661871
31
0
0
LINE
8
Základní_vrstva
62
3
10
2477.25816852256
20
2889.97974661871
30
0
11
2477.43216852256
21
2890.10574661871
31
0
0
LINE
8
Základní_vrstva
62
3
10
2477.43216852256
20
2890.10574661871
30
0
11
2477.49216852256
21
2890.30974661871
31
0
0
LINE
8
Základní_vrstva
62
3
10
2477.49216852256
20
2890.30974661871
30
0
11
2477.50416852256
21
2890.51374661871
31
0
0
LINE
8
Základní_vrstva
62
3
10
2477.50416852256
20
2890.51374661871
30
0
11
2477.58816852256
21
2890.70574661871
31
0
0
LINE
8
Základní_vrstva
62
3
10
2477.58816852256
20
2890.70574661871
30
0
11
2477.64216852256
21
2890.87974661871
31
0
0
CIRCLE
8
Základní_vrstva
62
3
10
2476.46016852256
20
2890.78374661871
30
0
40
0.0999999999999091
0
LINE
8
Základní_vrstva
62
3
10
2483.09319977256
20
2892.36802786871
30
0
11
2483.02119977256
21
2892.53602786871
31
0
0
LINE
8
Základní_vrstva
62
3
10
2483.02119977256
20
2892.53602786871
30
0
11
2482.90119977256
21
2892.72202786871
31
0
0
LINE
8
Základní_vrstva
62
3
10
2482.90119977256
20
2892.72202786871
30
0
11
2482.84719977256
21
2892.92602786871
31
0
0
LINE
8
Základní_vrstva
62
3
10
2482.84719977256
20
2892.92602786871
30
0
11
2482.76319977256
21
2893.10602786871
31
0
0
LINE
8
Základní_vrstva
62
3
10
2482.76319977256
20
2893.10602786871
30
0
11
2482.57119977256
21
2893.20202786871
31
0
0
LINE
8
Základní_vrstva
62
3
10
2482.57119977256
20
2893.20202786871
30
0
11
2482.37319977256
21
2893.25602786871
31
0
0
LINE
8
Základní_vrstva
62
3
10
2482.37319977256
20
2893.25602786871
30
0
11
2482.21119977256
21
2893.37002786871
31
0
0
LINE
8
Základní_vrstva
62
3
10
2482.21119977256
20
2893.37002786871
30
0
11
2482.02519977256
21
2893.45402786871
31
0
0
LINE
8
Základní_vrstva
62
3
10
2482.02519977256
20
2893.45402786871
30
0
11
2481.82719977256
21
2893.40002786871
31
0
0
LINE
8
Základní_vrstva
62
3
10
2481.82719977256
20
2893.40002786871
30
0
11
2481.65319977256
21
2893.31602786871
31
0
0
LINE
8
Základní_vrstva
62
3
10
2481.65319977256
20
2893.31602786871
30
0
11
2481.44919977256
21
2893.29802786871
31
0
0
LINE
8
Základní_vrstva
62
3
10
2481.44919977256
20
2893.29802786871
30
0
11
2481.24519977256
21
2893.25002786871
31
0
0
LINE
8
Základní_vrstva
62
3
10
2481.24519977256
20
2893.25002786871
30
0
11
2481.11919977256
21
2893.07602786871
31
0
0
LINE
8
Základní_vrstva
62
3
10
2481.11919977256
20
2893.07602786871
30
0
11
2481.02919977256
21
2892.89002786871
31
0
0
LINE
8
Základní_vrstva
62
3
10
2481.02919977256
20
2892.89002786871
30
0
11
2480.89119977256
21
2892.75202786871
31
0
0
LINE
8
Základní_vrstva
62
3
10
2480.89119977256
20
2892.75202786871
30
0
11
2480.77119977256
21
2892.56602786871
31
0
0
LINE
8
Základní_vrstva
62
3
10
2480.77119977256
20
2892.56602786871
30
0
11
2480.78919977256
21
2892.36202786871
31
0
0
LINE
8
Základní_vrstva
62
3
10
2480.78919977256
20
2892.36202786871
30
0
11
2480.84319977256
21
2892.17602786871
31
0
0
LINE
8
Základní_vrstva
62
3
10
2480.84319977256
20
2892.17602786871
30
0
11
2480.81919977256
21
2891.97802786871
31
0
0
LINE
8
Základní_vrstva
62
3
10
2480.81919977256
20
2891.97802786871
30
0
11
2480.83719977256
21
2891.77402786871
31
0
0
LINE
8
Základní_vrstva
62
3
10
2480.83719977256
20
2891.77402786871
30
0
11
2480.98719977256
21
2891.61802786871
31
0
0
LINE
8
Základní_vrstva
62
3
10
2480.98719977256
20
2891.61802786871
30
0
11
2481.16119977256
21
2891.49802786871
31
0
0
LINE
8
Základní_vrstva
62
3
10
2481.16119977256
20
2891.49802786871
30
0
11
2481.27519977256
21
2891.33602786871
31
0
0
LINE
8
Základní_vrstva
62
3
10
2481.27519977256
20
2891.33602786871
30
0
11
2481.40719977256
21
2891.19802786871
31
0
0
LINE
8
Základní_vrstva
62
3
10
2481.40719977256
20
2891.19802786871
30
0
11
2481.61119977256
21
2891.18002786871
31
0
0
LINE
8
Základní_vrstva
62
3
10
2481.61119977256
20
2891.18002786871
30
0
11
2481.82119977256
21
2891.19802786871
31
0
0
LINE
8
Základní_vrstva
62
3
10
2481.82119977256
20
2891.19802786871
30
0
11
2482.01319977256
21
2891.14402786871
31
0
0
LINE
8
Základní_vrstva
62
3
10
2482.01319977256
20
2891.14402786871
30
0
11
2482.22319977256
21
2891.12602786871
31
0
0
LINE
8
Základní_vrstva
62
3
10
2482.22319977256
20
2891.12602786871
30
0
11
2482.39119977256
21
2891.24002786871
31
0
0
LINE
8
Základní_vrstva
62
3
10
2482.39119977256
20
2891.24002786871
30
0
11
2482.52919977256
21
2891.38402786871
31
0
0
LINE
8
Základní_vrstva
62
3
10
2482.52919977256
20
2891.38402786871
30
0
11
2482.71519977256
21
2891.46802786871
31
0
0
LINE
8
Základní_vrstva
62
3
10
2482.71519977256
20
2891.46802786871
30
0
11
2482.88919977256
21
2891.59402786871
31
0
0
LINE
8
Základní_vrstva
62
3
10
2482.88919977256
20
2891.59402786871
30
0
11
2482.94919977256
21
2891.79802786871
31
0
0
LINE
8
Základní_vrstva
62
3
10
2482.94919977256
20
2891.79802786871
30
0
11
2482.96119977256
21
2892.00202786871
31
0
0
LINE
8
Základní_vrstva
62
3
10
2482.96119977256
20
2892.00202786871
30
0
11
2483.04519977256
21
2892.19402786871
31
0
0
LINE
8
Základní_vrstva
62
3
10
2483.04519977256
20
2892.19402786871
30
0
11
2483.09919977256
21
2892.36802786871
31
0
0
CIRCLE
8
Základní_vrstva
62
3
10
2481.91719977256
20
2892.27202786871
30
0
40
0.0999999999999091
0
LINE
8
Základní_vrstva
62
3
10
2488.74866852256
20
2894.15396536871
30
0
11
2488.67666852256
21
2894.32196536871
31
0
0
LINE
8
Základní_vrstva
62
3
10
2488.67666852256
20
2894.32196536871
30
0
11
2488.55666852256
21
2894.50796536871
31
0
0
LINE
8
Základní_vrstva
62
3
10
2488.55666852256
20
2894.50796536871
30
0
11
2488.50266852256
21
2894.71196536871
31
0
0
LINE
8
Základní_vrstva
62
3
10
2488.50266852256
20
2894.71196536871
30
0
11
2488.41866852256
21
2894.89196536871
31
0
0
LINE
8
Základní_vrstva
62
3
10
2488.41866852256
20
2894.89196536871
30
0
11
2488.22666852256
21
2894.98796536871
31
0
0
LINE
8
Základní_vrstva
62
3
10
2488.22666852256
20
2894.98796536871
30
0
11
2488.02866852256
21
2895.04196536871
31
0
0
LINE
8
Základní_vrstva
62
3
10
2488.02866852256
20
2895.04196536871
30
0
11
2487.86666852256
21
2895.15596536871
31
0
0
LINE
8
Základní_vrstva
62
3
10
2487.86666852256
20
2895.15596536871
30
0
11
2487.68066852256
21
2895.23996536871
31
0
0
LINE
8
Základní_vrstva
62
3
10
2487.68066852256
20
2895.23996536871
30
0
11
2487.48266852256
21
2895.18596536871
31
0
0
LINE
8
Základní_vrstva
62
3
10
2487.48266852256
20
2895.18596536871
30
0
11
2487.30866852256
21
2895.10196536871
31
0
0
LINE
8
Základní_vrstva
62
3
10
2487.30866852256
20
2895.10196536871
30
0
11
2487.10466852256
21
2895.08396536871
31
0
0
LINE
8
Základní_vrstva
62
3
10
2487.10466852256
20
2895.08396536871
30
0
11
2486.90066852256
21
2895.03596536871
31
0
0
LINE
8
Základní_vrstva
62
3
10
2486.90066852256
20
2895.03596536871
30
0
11
2486.77466852256
21
2894.86196536871
31
0
0
LINE
8
Základní_vrstva
62
3
10
2486.77466852256
20
2894.86196536871
30
0
11
2486.68466852256
21
2894.67596536871
31
0
0
LINE
8
Základní_vrstva
62
3
10
2486.68466852256
20
2894.67596536871
30
0
11
2486.54666852256
21
2894.53796536871
31
0
0
LINE
8
Základní_vrstva
62
3
10
2486.54666852256
20
2894.53796536871
30
0
11
2486.42666852256
21
2894.35196536871
31
0
0
LINE
8
Základní_vrstva
62
3
10
2486.42666852256
20
2894.35196536871
30
0
11
2486.44466852256
21
2894.14796536871
31
0
0
LINE
8
Základní_vrstva
62
3
10
2486.44466852256
20
2894.14796536871
30
0
11
2486.49866852256
21
2893.96196536871
31
0
0
LINE
8
Základní_vrstva
62
3
10
2486.49866852256
20
2893.96196536871
30
0
11
2486.47466852256
21
2893.76396536871
31
0
0
LINE
8
Základní_vrstva
62
3
10
2486.47466852256
20
2893.76396536871
30
0
11
2486.49266852256
21
2893.55996536871
31
0
0
LINE
8
Základní_vrstva
62
3
10
2486.49266852256
20
2893.55996536871
30
0
11
2486.64266852256
21
2893.40396536871
31
0
0
LINE
8
Základní_vrstva
62
3
10
2486.64266852256
20
2893.40396536871
30
0
11
2486.81666852256
21
2893.28396536871
31
0
0
LINE
8
Základní_vrstva
62
3
10
2486.81666852256
20
2893.28396536871
30
0
11
2486.93066852256
21
2893.12196536871
31
0
0
LINE
8
Základní_vrstva
62
3
10
2486.93066852256
20
2893.12196536871
30
0
11
2487.06266852256
21
2892.98396536871
31
0
0
LINE
8
Základní_vrstva
62
3
10
2487.06266852256
20
2892.98396536871
30
0
11
2487.26666852256
21
2892.96596536871
31
0
0
LINE
8
Základní_vrstva
62
3
10
2487.26666852256
20
2892.96596536871
30
0
11
2487.47666852256
21
2892.98396536871
31
0
0
LINE
8
Základní_vrstva
62
3
10
2487.47666852256
20
2892.98396536871
30
0
11
2487.66866852256
21
2892.92996536871
31
0
0
LINE
8
Základní_vrstva
62
3
10
2487.66866852256
20
2892.92996536871
30
0
11
2487.87866852256
21
2892.91196536871
31
0
0
LINE
8
Základní_vrstva
62
3
10
2487.87866852256
20
2892.91196536871
30
0
11
2488.04666852256
21
2893.02596536871
31
0
0
LINE
8
Základní_vrstva
62
3
10
2488.04666852256
20
2893.02596536871
30
0
11
2488.18466852256
21
2893.16996536871
31
0
0
LINE
8
Základní_vrstva
62
3
10
2488.18466852256
20
2893.16996536871
30
0
11
2488.37066852256
21
2893.25396536871
31
0
0
LINE
8
Základní_vrstva
62
3
10
2488.37066852256
20
2893.25396536871
30
0
11
2488.54466852256
21
2893.37996536871
31
0
0
LINE
8
Základní_vrstva
62
3
10
2488.54466852256
20
2893.37996536871
30
0
11
2488.60466852256
21
2893.58396536871
31
0
0
LINE
8
Základní_vrstva
62
3
10
2488.60466852256
20
2893.58396536871
30
0
11
2488.61666852256
21
2893.78796536871
31
0
0
LINE
8
Základní_vrstva
62
3
10
2488.61666852256
20
2893.78796536871
30
0
11
2488.70066852256
21
2893.97996536871
31
0
0
LINE
8
Základní_vrstva
62
3
10
2488.70066852256
20
2893.97996536871
30
0
11
2488.75466852256
21
2894.15396536871
31
0
0
CIRCLE
8
Základní_vrstva
62
3
10
2487.57266852256
20
2894.05796536871
30
0
40
0.0999999999999091
0
LINE
8
Základní_vrstva
62
3
10
2493.90804352256
20
2895.64224661871
30
0
11
2493.83604352256
21
2895.81024661871
31
0
0
LINE
8
Základní_vrstva
62
3
10
2493.83604352256
20
2895.81024661871
30
0
11
2493.71604352256
21
2895.99624661871
31
0
0
LINE
8
Základní_vrstva
62
3
10
2493.71604352256
20
2895.99624661871
30
0
11
2493.66204352256
21
2896.20024661871
31
0
0
LINE
8
Základní_vrstva
62
3
10
2493.66204352256
20
2896.20024661871
30
0
11
2493.57804352256
21
2896.38024661871
31
0
0
LINE
8
Základní_vrstva
62
3
10
2493.57804352256
20
2896.38024661871
30
0
11
2493.38604352256
21
2896.47624661871
31
0
0
LINE
8
Základní_vrstva
62
3
10
2493.38604352256
20
2896.47624661871
30
0
11
2493.18804352256
21
2896.53024661871
31
0
0
LINE
8
Základní_vrstva
62
3
10
2493.18804352256
20
2896.53024661871
30
0
11
2493.02604352256
21
2896.64424661871
31
0
0
LINE
8
Základní_vrstva
62
3
10
2493.02604352256
20
2896.64424661871
30
0
11
2492.84004352256
21
2896.72824661871
31
0
0
LINE
8
Základní_vrstva
62
3
10
2492.84004352256
20
2896.72824661871
30
0
11
2492.64204352256
21
2896.67424661871
31
0
0
LINE
8
Základní_vrstva
62
3
10
2492.64204352256
20
2896.67424661871
30
0
11
2492.46804352256
21
2896.59024661871
31
0
0
LINE
8
Základní_vrstva
62
3
10
2492.46804352256
20
2896.59024661871
30
0
11
2492.26404352256
21
2896.57224661871
31
0
0
LINE
8
Základní_vrstva
62
3
10
2492.26404352256
20
2896.57224661871
30
0
11
2492.06004352256
21
2896.52424661871
31
0
0
LINE
8
Základní_vrstva
62
3
10
2492.06004352256
20
2896.52424661871
30
0
11
2491.93404352256
21
2896.35024661871
31
0
0
LINE
8
Základní_vrstva
62
3
10
2491.93404352256
20
2896.35024661871
30
0
11
2491.84404352256
21
2896.16424661871
31
0
0
LINE
8
Základní_vrstva
62
3
10
2491.84404352256
20
2896.16424661871
30
0
11
2491.70604352256
21
2896.02624661871
31
0
0
LINE
8
Základní_vrstva
62
3
10
2491.70604352256
20
2896.02624661871
30
0
11
2491.58604352256
21
2895.84024661871
31
0
0
LINE
8
Základní_vrstva
62
3
10
2491.58604352256
20
2895.84024661871
30
0
11
2491.60404352256
21
2895.63624661871
31
0
0
LINE
8
Základní_vrstva
62
3
10
2491.60404352256
20
2895.63624661871
30
0
11
2491.65804352256
21
2895.45024661871
31
0
0
LINE
8
Základní_vrstva
62
3
10
2491.65804352256
20
2895.45024661871
30
0
11
2491.63404352256
21
2895.25224661871
31
0
0
LINE
8
Základní_vrstva
62
3
10
2491.63404352256
20
2895.25224661871
30
0
11
2491.65204352256
21
2895.04824661871
31
0
0
LINE
8
Základní_vrstva
62
3
10
2491.65204352256
20
2895.04824661871
30
0
11
2491.80204352256
21
2894.89224661871
31
0
0
LINE
8
Základní_vrstva
62
3
10
2491.80204352256
20
2894.89224661871
30
0
11
2491.97604352256
21
2894.77224661871
31
0
0
LINE
8
Základní_vrstva
62
3
10
2491.97604352256
20
2894.77224661871
30
0
11
2492.09004352256
21
2894.61024661871
31
0
0
LINE
8
Základní_vrstva
62
3
10
2492.09004352256
20
2894.61024661871
30
0
11
2492.22204352256
21
2894.47224661871
31
0
0
LINE
8
Základní_vrstva
62
3
10
2492.22204352256
20
2894.47224661871
30
0
11
2492.42604352256
21
2894.45424661871
31
0
0
LINE
8
Základní_vrstva
62
3
10
2492.42604352256
20
2894.45424661871
30
0
11
2492.63604352256
21
2894.47224661871
31
0
0
LINE
8
Základní_vrstva
62
3
10
2492.63604352256
20
2894.47224661871
30
0
11
2492.82804352256
21
2894.41824661871
31
0
0
LINE
8
Základní_vrstva
62
3
10
2492.82804352256
20
2894.41824661871
30
0
11
2493.03804352256
21
2894.40024661871
31
0
0
LINE
8
Základní_vrstva
62
3
10
2493.03804352256
20
2894.40024661871
30
0
11
2493.20604352256
21
2894.51424661871
31
0
0
LINE
8
Základní_vrstva
62
3
10
2493.20604352256
20
2894.51424661871
30
0
11
2493.34404352256
21
2894.65824661871
31
0
0
LINE
8
Základní_vrstva
62
3
10
2493.34404352256
20
2894.65824661871
30
0
11
2493.53004352256
21
2894.74224661871
31
0
0
LINE
8
Základní_vrstva
62
3
10
2493.53004352256
20
2894.74224661871
30
0
11
2493.70404352256
21
2894.86824661871
31
0
0
LINE
8
Základní_vrstva
62
3
10
2493.70404352256
20
2894.86824661871
30
0
11
2493.76404352256
21
2895.07224661871
31
0
0
LINE
8
Základní_vrstva
62
3
10
2493.76404352256
20
2895.07224661871
30
0
11
2493.77604352256
21
2895.27624661871
31
0
0
LINE
8
Základní_vrstva
62
3
10
2493.77604352256
20
2895.27624661871
30
0
11
2493.86004352256
21
2895.46824661871
31
0
0
LINE
8
Základní_vrstva
62
3
10
2493.86004352256
20
2895.46824661871
30
0
11
2493.91404352256
21
2895.64224661871
31
0
0
CIRCLE
8
Základní_vrstva
62
3
10
2492.73204352256
20
2895.54624661871
30
0
40
0.0999999999999091
0
LINE
8
Základní_vrstva
62
3
10
2499.36507477256
20
2897.32896536871
30
0
11
2499.29307477256
21
2897.49696536871
31
0
0
LINE
8
Základní_vrstva
62
3
10
2499.29307477256
20
2897.49696536871
30
0
11
2499.17307477256
21
2897.68296536871
31
0
0
LINE
8
Základní_vrstva
62
3
10
2499.17307477256
20
2897.68296536871
30
0
11
2499.11907477256
21
2897.88696536871
31
0
0
LINE
8
Základní_vrstva
62
3
10
2499.11907477256
20
2897.88696536871
30
0
11
2499.03507477256
21
2898.06696536871
31
0
0
LINE
8
Základní_vrstva
62
3
10
2499.03507477256
20
2898.06696536871
30
0
11
2498.84307477256
21
2898.16296536871
31
0
0
LINE
8
Základní_vrstva
62
3
10
2498.84307477256
20
2898.16296536871
30
0
11
2498.64507477256
21
2898.21696536871
31
0
0
LINE
8
Základní_vrstva
62
3
10
2498.64507477256
20
2898.21696536871
30
0
11
2498.48307477256
21
2898.33096536871
31
0
0
LINE
8
Základní_vrstva
62
3
10
2498.48307477256
20
2898.33096536871
30
0
11
2498.29707477256
21
2898.41496536871
31
0
0
LINE
8
Základní_vrstva
62
3
10
2498.29707477256
20
2898.41496536871
30
0
11
2498.09907477256
21
2898.36096536871
31
0
0
LINE
8
Základní_vrstva
62
3
10
2498.09907477256
20
2898.36096536871
30
0
11
2497.92507477256
21
2898.27696536871
31
0
0
LINE
8
Základní_vrstva
62
3
10
2497.92507477256
20
2898.27696536871
30
0
11
2497.72107477256
21
2898.25896536871
31
0
0
LINE
8
Základní_vrstva
62
3
10
2497.72107477256
20
2898.25896536871
30
0
11
2497.51707477256
21
2898.21096536871
31
0
0
LINE
8
Základní_vrstva
62
3
10
2497.51707477256
20
2898.21096536871
30
0
11
2497.39107477256
21
2898.03696536871
31
0
0
LINE
8
Základní_vrstva
62
3
10
2497.39107477256
20
2898.03696536871
30
0
11
2497.30107477256
21
2897.85096536871
31
0
0
LINE
8
Základní_vrstva
62
3
10
2497.30107477256
20
2897.85096536871
30
0
11
2497.16307477256
21
2897.71296536871
31
0
0
LINE
8
Základní_vrstva
62
3
10
2497.16307477256
20
2897.71296536871
30
0
11
2497.04307477256
21
2897.52696536871
31
0
0
LINE
8
Základní_vrstva
62
3
10
2497.04307477256
20
2897.52696536871
30
0
11
2497.06107477256
21
2897.32296536871
31
0
0
LINE
8
Základní_vrstva
62
3
10
2497.06107477256
20
2897.32296536871
30
0
11
2497.11507477256
21
2897.13696536871
31
0
0
LINE
8
Základní_vrstva
62
3
10
2497.11507477256
20
2897.13696536871
30
0
11
2497.09107477256
21
2896.93896536871
31
0
0
LINE
8
Základní_vrstva
62
3
10
2497.09107477256
20
2896.93896536871
30
0
11
2497.10907477256
21
2896.73496536871
31
0
0
LINE
8
Základní_vrstva
62
3
10
2497.10907477256
20
2896.73496536871
30
0
11
2497.25907477256
21
2896.57896536871
31
0
0
LINE
8
Základní_vrstva
62
3
10
2497.25907477256
20
2896.57896536871
30
0
11
2497.43307477256
21
2896.45896536871
31
0
0
LINE
8
Základní_vrstva
62
3
10
2497.43307477256
20
2896.45896536871
30
0
11
2497.54707477256
21
2896.29696536871
31
0
0
LINE
8
Základní_vrstva
62
3
10
2497.54707477256
20
2896.29696536871
30
0
11
2497.67907477256
21
2896.15896536871
31
0
0
LINE
8
Základní_vrstva
62
3
10
2497.67907477256
20
2896.15896536871
30
0
11
2497.88307477256
21
2896.14096536871
31
0
0
LINE
8
Základní_vrstva
62
3
10
2497.88307477256
20
2896.14096536871
30
0
11
2498.09307477256
21
2896.15896536871
31
0
0
LINE
8
Základní_vrstva
62
3
10
2498.09307477256
20
2896.15896536871
30
0
11
2498.28507477256
21
2896.10496536871
31
0
0
LINE
8
Základní_vrstva
62
3
10
2498.28507477256
20
2896.10496536871
30
0
11
2498.49507477256
21
2896.08696536871
31
0
0
LINE
8
Základní_vrstva
62
3
10
2498.49507477256
20
2896.08696536871
30
0
11
2498.66307477256
21
2896.20096536871
31
0
0
LINE
8
Základní_vrstva
62
3
10
2498.66307477256
20
2896.20096536871
30
0
11
2498.80107477256
21
2896.34496536871
31
0
0
LINE
8
Základní_vrstva
62
3
10
2498.80107477256
20
2896.34496536871
30
0
11
2498.98707477256
21
2896.42896536871
31
0
0
LINE
8
Základní_vrstva
62
3
10
2498.98707477256
20
2896.42896536871
30
0
11
2499.16107477256
21
2896.55496536871
31
0
0
LINE
8
Základní_vrstva
62
3
10
2499.16107477256
20
2896.55496536871
30
0
11
2499.22107477256
21
2896.75896536871
31
0
0
LINE
8
Základní_vrstva
62
3
10
2499.22107477256
20
2896.75896536871
30
0
11
2499.23307477256
21
2896.96296536871
31
0
0
LINE
8
Základní_vrstva
62
3
10
2499.23307477256
20
2896.96296536871
30
0
11
2499.31707477256
21
2897.15496536871
31
0
0
LINE
8
Základní_vrstva
62
3
10
2499.31707477256
20
2897.15496536871
30
0
11
2499.37107477256
21
2897.32896536871
31
0
0
CIRCLE
8
Základní_vrstva
62
3
10
2498.18907477256
20
2897.23296536871
30
0
40
0.0999999999999091
0
LINE
8
Základní_vrstva
62
3
10
2504.42523102256
20
2898.91646536871
30
0
11
2504.35323102256
21
2899.08446536871
31
0
0
LINE
8
Základní_vrstva
62
3
10
2504.35323102256
20
2899.08446536871
30
0
11
2504.23323102256
21
2899.27046536871
31
0
0
LINE
8
Základní_vrstva
62
3
10
2504.23323102256
20
2899.27046536871
30
0
11
2504.17923102256
21
2899.47446536871
31
0
0
LINE
8
Základní_vrstva
62
3
10
2504.17923102256
20
2899.47446536871
30
0
11
2504.09523102256
21
2899.65446536871
31
0
0
LINE
8
Základní_vrstva
62
3
10
2504.09523102256
20
2899.65446536871
30
0
11
2503.90323102256
21
2899.75046536871
31
0
0
LINE
8
Základní_vrstva
62
3
10
2503.90323102256
20
2899.75046536871
30
0
11
2503.70523102256
21
2899.80446536871
31
0
0
LINE
8
Základní_vrstva
62
3
10
2503.70523102256
20
2899.80446536871
30
0
11
2503.54323102256
21
2899.91846536871
31
0
0
LINE
8
Základní_vrstva
62
3
10
2503.54323102256
20
2899.91846536871
30
0
11
2503.35723102256
21
2900.00246536871
31
0
0
LINE
8
Základní_vrstva
62
3
10
2503.35723102256
20
2900.00246536871
30
0
11
2503.15923102256
21
2899.94846536871
31
0
0
LINE
8
Základní_vrstva
62
3
10
2503.15923102256
20
2899.94846536871
30
0
11
2502.98523102256
21
2899.86446536871
31
0
0
LINE
8
Základní_vrstva
62
3
10
2502.98523102256
20
2899.86446536871
30
0
11
2502.78123102256
21
2899.84646536871
31
0
0
LINE
8
Základní_vrstva
62
3
10
2502.78123102256
20
2899.84646536871
30
0
11
2502.57723102256
21
2899.79846536871
31
0
0
LINE
8
Základní_vrstva
62
3
10
2502.57723102256
20
2899.79846536871
30
0
11
2502.45123102256
21
2899.62446536871
31
0
0
LINE
8
Základní_vrstva
62
3
10
2502.45123102256
20
2899.62446536871
30
0
11
2502.36123102256
21
2899.43846536871
31
0
0
LINE
8
Základní_vrstva
62
3
10
2502.36123102256
20
2899.43846536871
30
0
11
2502.22323102256
21
2899.30046536871
31
0
0
LINE
8
Základní_vrstva
62
3
10
2502.22323102256
20
2899.30046536871
30
0
11
2502.10323102256
21
2899.11446536871
31
0
0
LINE
8
Základní_vrstva
62
3
10
2502.10323102256
20
2899.11446536871
30
0
11
2502.12123102256
21
2898.91046536871
31
0
0
LINE
8
Základní_vrstva
62
3
10
2502.12123102256
20
2898.91046536871
30
0
11
2502.17523102256
21
2898.72446536871
31
0
0
LINE
8
Základní_vrstva
62
3
10
2502.17523102256
20
2898.72446536871
30
0
11
2502.15123102256
21
2898.52646536871
31
0
0
LINE
8
Základní_vrstva
62
3
10
2502.15123102256
20
2898.52646536871
30
0
11
2502.16923102256
21
2898.32246536871
31
0
0
LINE
8
Základní_vrstva
62
3
10
2502.16923102256
20
2898.32246536871
30
0
11
2502.31923102256
21
2898.16646536871
31
0
0
LINE
8
Základní_vrstva
62
3
10
2502.31923102256
20
2898.16646536871
30
0
11
2502.49323102256
21
2898.04646536871
31
0
0
LINE
8
Základní_vrstva
62
3
10
2502.49323102256
20
2898.04646536871
30
0
11
2502.60723102256
21
2897.88446536871
31
0
0
LINE
8
Základní_vrstva
62
3
10
2502.60723102256
20
2897.88446536871
30
0
11
2502.73923102256
21
2897.74646536871
31
0
0
LINE
8
Základní_vrstva
62
3
10
2502.73923102256
20
2897.74646536871
30
0
11
2502.94323102256
21
2897.72846536871
31
0
0
LINE
8
Základní_vrstva
62
3
10
2502.94323102256
20
2897.72846536871
30
0
11
2503.15323102256
21
2897.74646536871
31
0
0
LINE
8
Základní_vrstva
62
3
10
2503.15323102256
20
2897.74646536871
30
0
11
2503.34523102256
21
2897.69246536871
31
0
0
LINE
8
Základní_vrstva
62
3
10
2503.34523102256
20
2897.69246536871
30
0
11
2503.55523102256
21
2897.67446536871
31
0
0
LINE
8
Základní_vrstva
62
3
10
2503.55523102256
20
2897.67446536871
30
0
11
2503.72323102256
21
2897.78846536871
31
0
0
LINE
8
Základní_vrstva
62
3
10
2503.72323102256
20
2897.78846536871
30
0
11
2503.86123102256
21
2897.93246536871
31
0
0
LINE
8
Základní_vrstva
62
3
10
2503.86123102256
20
2897.93246536871
30
0
11
2504.04723102256
21
2898.01646536871
31
0
0
LINE
8
Základní_vrstva
62
3
10
2504.04723102256
20
2898.01646536871
30
0
11
2504.22123102256
21
2898.14246536871
31
0
0
LINE
8
Základní_vrstva
62
3
10
2504.22123102256
20
2898.14246536871
30
0
11
2504.28123102256
21
2898.34646536871
31
0
0
LINE
8
Základní_vrstva
62
3
10
2504.28123102256
20
2898.34646536871
30
0
11
2504.29323102256
21
2898.55046536871
31
0
0
LINE
8
Základní_vrstva
62
3
10
2504.29323102256
20
2898.55046536871
30
0
11
2504.37723102256
21
2898.74246536871
31
0
0
LINE
8
Základní_vrstva
62
3
10
2504.37723102256
20
2898.74246536871
30
0
11
2504.43123102256
21
2898.91646536871
31
0
0
CIRCLE
8
Základní_vrstva
62
3
10
2503.24923102256
20
2898.82046536871
30
0
40
0.0999999999999091
0
LINE
8
Základní_vrstva
62
3
10
2509.18773102256
20
2900.40474661871
30
0
11
2509.11573102256
21
2900.57274661871
31
0
0
LINE
8
Základní_vrstva
62
3
10
2509.11573102256
20
2900.57274661871
30
0
11
2508.99573102256
21
2900.75874661871
31
0
0
LINE
8
Základní_vrstva
62
3
10
2508.99573102256
20
2900.75874661871
30
0
11
2508.94173102256
21
2900.96274661871
31
0
0
LINE
8
Základní_vrstva
62
3
10
2508.94173102256
20
2900.96274661871
30
0
11
2508.85773102256
21
2901.14274661871
31
0
0
LINE
8
Základní_vrstva
62
3
10
2508.85773102256
20
2901.14274661871
30
0
11
2508.66573102256
21
2901.23874661871
31
0
0
LINE
8
Základní_vrstva
62
3
10
2508.66573102256
20
2901.23874661871
30
0
11
2508.46773102256
21
2901.29274661871
31
0
0
LINE
8
Základní_vrstva
62
3
10
2508.46773102256
20
2901.29274661871
30
0
11
2508.30573102256
21
2901.40674661871
31
0
0
LINE
8
Základní_vrstva
62
3
10
2508.30573102256
20
2901.40674661871
30
0
11
2508.11973102256
21
2901.49074661871
31
0
0
LINE
8
Základní_vrstva
62
3
10
2508.11973102256
20
2901.49074661871
30
0
11
2507.92173102256
21
2901.43674661871
31
0
0
LINE
8
Základní_vrstva
62
3
10
2507.92173102256
20
2901.43674661871
30
0
11
2507.74773102256
21
2901.35274661871
31
0
0
LINE
8
Základní_vrstva
62
3
10
2507.74773102256
20
2901.35274661871
30
0
11
2507.54373102256
21
2901.33474661871
31
0
0
LINE
8
Základní_vrstva
62
3
10
2507.54373102256
20
2901.33474661871
30
0
11
2507.33973102256
21
2901.28674661871
31
0
0
LINE
8
Základní_vrstva
62
3
10
2507.33973102256
20
2901.28674661871
30
0
11
2507.21373102256
21
2901.11274661871
31
0
0
LINE
8
Základní_vrstva
62
3
10
2507.21373102256
20
2901.11274661871
30
0
11
2507.12373102256
21
2900.92674661871
31
0
0
LINE
8
Základní_vrstva
62
3
10
2507.12373102256
20
2900.92674661871
30
0
11
2506.98573102256
21
2900.78874661871
31
0
0
LINE
8
Základní_vrstva
62
3
10
2506.98573102256
20
2900.78874661871
30
0
11
2506.86573102256
21
2900.60274661871
31
0
0
LINE
8
Základní_vrstva
62
3
10
2506.86573102256
20
2900.60274661871
30
0
11
2506.88373102256
21
2900.39874661871
31
0
0
LINE
8
Základní_vrstva
62
3
10
2506.88373102256
20
2900.39874661871
30
0
11
2506.93773102256
21
2900.21274661871
31
0
0
LINE
8
Základní_vrstva
62
3
10
2506.93773102256
20
2900.21274661871
30
0
11
2506.91373102256
21
2900.01474661871
31
0
0
LINE
8
Základní_vrstva
62
3
10
2506.91373102256
20
2900.01474661871
30
0
11
2506.93173102256
21
2899.81074661871
31
0
0
LINE
8
Základní_vrstva
62
3
10
2506.93173102256
20
2899.81074661871
30
0
11
2507.08173102256
21
2899.65474661871
31
0
0
LINE
8
Základní_vrstva
62
3
10
2507.08173102256
20
2899.65474661871
30
0
11
2507.25573102256
21
2899.53474661871
31
0
0
LINE
8
Základní_vrstva
62
3
10
2507.25573102256
20
2899.53474661871
30
0
11
2507.36973102256
21
2899.37274661871
31
0
0
LINE
8
Základní_vrstva
62
3
10
2507.36973102256
20
2899.37274661871
30
0
11
2507.50173102256
21
2899.23474661871
31
0
0
LINE
8
Základní_vrstva
62
3
10
2507.50173102256
20
2899.23474661871
30
0
11
2507.70573102256
21
2899.21674661871
31
0
0
LINE
8
Základní_vrstva
62
3
10
2507.70573102256
20
2899.21674661871
30
0
11
2507.91573102256
21
2899.23474661871
31
0
0
LINE
8
Základní_vrstva
62
3
10
2507.91573102256
20
2899.23474661871
30
0
11
2508.10773102256
21
2899.18074661871
31
0
0
LINE
8
Základní_vrstva
62
3
10
2508.10773102256
20
2899.18074661871
30
0
11
2508.31773102256
21
2899.16274661871
31
0
0
LINE
8
Základní_vrstva
62
3
10
2508.31773102256
20
2899.16274661871
30
0
11
2508.48573102256
21
2899.27674661871
31
0
0
LINE
8
Základní_vrstva
62
3
10
2508.48573102256
20
2899.27674661871
30
0
11
2508.62373102256
21
2899.42074661871
31
0
0
LINE
8
Základní_vrstva
62
3
10
2508.62373102256
20
2899.42074661871
30
0
11
2508.80973102256
21
2899.50474661871
31
0
0
LINE
8
Základní_vrstva
62
3
10
2508.80973102256
20
2899.50474661871
30
0
11
2508.98373102256
21
2899.63074661871
31
0
0
LINE
8
Základní_vrstva
62
3
10
2508.98373102256
20
2899.63074661871
30
0
11
2509.04373102256
21
2899.83474661871
31
0
0
LINE
8
Základní_vrstva
62
3
10
2509.04373102256
20
2899.83474661871
30
0
11
2509.05573102256
21
2900.03874661871
31
0
0
LINE
8
Základní_vrstva
62
3
10
2509.05573102256
20
2900.03874661871
30
0
11
2509.13973102256
21
2900.23074661871
31
0
0
LINE
8
Základní_vrstva
62
3
10
2509.13973102256
20
2900.23074661871
30
0
11
2509.19373102256
21
2900.40474661871
31
0
0
CIRCLE
8
Základní_vrstva
62
3
10
2508.01173102256
20
2900.30874661871
30
0
40
0.0999999999999091
0
LINE
8
Základní_vrstva
62
3
10
2514.14866852256
20
2901.79380911871
30
0
11
2514.07666852256
21
2901.96180911871
31
0
0
LINE
8
Základní_vrstva
62
3
10
2514.07666852256
20
2901.96180911871
30
0
11
2513.95666852256
21
2902.14780911871
31
0
0
LINE
8
Základní_vrstva
62
3
10
2513.95666852256
20
2902.14780911871
30
0
11
2513.90266852256
21
2902.35180911871
31
0
0
LINE
8
Základní_vrstva
62
3
10
2513.90266852256
20
2902.35180911871
30
0
11
2513.81866852256
21
2902.53180911871
31
0
0
LINE
8
Základní_vrstva
62
3
10
2513.81866852256
20
2902.53180911871
30
0
11
2513.62666852256
21
2902.62780911871
31
0
0
LINE
8
Základní_vrstva
62
3
10
2513.62666852256
20
2902.62780911871
30
0
11
2513.42866852256
21
2902.68180911871
31
0
0
LINE
8
Základní_vrstva
62
3
10
2513.42866852256
20
2902.68180911871
30
0
11
2513.26666852256
21
2902.79580911871
31
0
0
LINE
8
Základní_vrstva
62
3
10
2513.26666852256
20
2902.79580911871
30
0
11
2513.08066852256
21
2902.87980911871
31
0
0
LINE
8
Základní_vrstva
62
3
10
2513.08066852256
20
2902.87980911871
30
0
11
2512.88266852256
21
2902.82580911871
31
0
0
LINE
8
Základní_vrstva
62
3
10
2512.88266852256
20
2902.82580911871
30
0
11
2512.70866852256
21
2902.74180911871
31
0
0
LINE
8
Základní_vrstva
62
3
10
2512.70866852256
20
2902.74180911871
30
0
11
2512.50466852256
21
2902.72380911871
31
0
0
LINE
8
Základní_vrstva
62
3
10
2512.50466852256
20
2902.72380911871
30
0
11
2512.30066852256
21
2902.67580911871
31
0
0
LINE
8
Základní_vrstva
62
3
10
2512.30066852256
20
2902.67580911871
30
0
11
2512.17466852256
21
2902.50180911871
31
0
0
LINE
8
Základní_vrstva
62
3
10
2512.17466852256
20
2902.50180911871
30
0
11
2512.08466852256
21
2902.31580911871
31
0
0
LINE
8
Základní_vrstva
62
3
10
2512.08466852256
20
2902.31580911871
30
0
11
2511.94666852256
21
2902.17780911871
31
0
0
LINE
8
Základní_vrstva
62
3
10
2511.94666852256
20
2902.17780911871
30
0
11
2511.82666852256
21
2901.99180911871
31
0
0
LINE
8
Základní_vrstva
62
3
10
2511.82666852256
20
2901.99180911871
30
0
11
2511.84466852256
21
2901.78780911871
31
0
0
LINE
8
Základní_vrstva
62
3
10
2511.84466852256
20
2901.78780911871
30
0
11
2511.89866852256
21
2901.60180911871
31
0
0
LINE
8
Základní_vrstva
62
3
10
2511.89866852256
20
2901.60180911871
30
0
11
2511.87466852256
21
2901.40380911871
31
0
0
LINE
8
Základní_vrstva
62
3
10
2511.87466852256
20
2901.40380911871
30
0
11
2511.89266852256
21
2901.19980911871
31
0
0
LINE
8
Základní_vrstva
62
3
10
2511.89266852256
20
2901.19980911871
30
0
11
2512.04266852256
21
2901.04380911871
31
0
0
LINE
8
Základní_vrstva
62
3
10
2512.04266852256
20
2901.04380911871
30
0
11
2512.21666852256
21
2900.92380911871
31
0
0
LINE
8
Základní_vrstva
62
3
10
2512.21666852256
20
2900.92380911871
30
0
11
2512.33066852256
21
2900.76180911871
31
0
0
LINE
8
Základní_vrstva
62
3
10
2512.33066852256
20
2900.76180911871
30
0
11
2512.46266852256
21
2900.62380911871
31
0
0
LINE
8
Základní_vrstva
62
3
10
2512.46266852256
20
2900.62380911871
30
0
11
2512.66666852256
21
2900.60580911871
31
0
0
LINE
8
Základní_vrstva
62
3
10
2512.66666852256
20
2900.60580911871
30
0
11
2512.87666852256
21
2900.62380911871
31
0
0
LINE
8
Základní_vrstva
62
3
10
2512.87666852256
20
2900.62380911871
30
0
11
2513.06866852256
21
2900.56980911871
31
0
0
LINE
8
Základní_vrstva
62
3
10
2513.06866852256
20
2900.56980911871
30
0
11
2513.27866852256
21
2900.55180911871
31
0
0
LINE
8
Základní_vrstva
62
3
10
2513.27866852256
20
2900.55180911871
30
0
11
2513.44666852256
21
2900.66580911871
31
0
0
LINE
8
Základní_vrstva
62
3
10
2513.44666852256
20
2900.66580911871
30
0
11
2513.58466852256
21
2900.80980911871
31
0
0
LINE
8
Základní_vrstva
62
3
10
2513.58466852256
20
2900.80980911871
30
0
11
2513.77066852256
21
2900.89380911871
31
0
0
LINE
8
Základní_vrstva
62
3
10
2513.77066852256
20
2900.89380911871
30
0
11
2513.94466852256
21
2901.01980911871
31
0
0
LINE
8
Základní_vrstva
62
3
10
2513.94466852256
20
2901.01980911871
30
0
11
2514.00466852256
21
2901.22380911871
31
0
0
LINE
8
Základní_vrstva
62
3
10
2514.00466852256
20
2901.22380911871
30
0
11
2514.01666852256
21
2901.42780911871
31
0
0
LINE
8
Základní_vrstva
62
3
10
2514.01666852256
20
2901.42780911871
30
0
11
2514.10066852256
21
2901.61980911871
31
0
0
LINE
8
Základní_vrstva
62
3
10
2514.10066852256
20
2901.61980911871
30
0
11
2514.15466852256
21
2901.79380911871
31
0
0
CIRCLE
8
Základní_vrstva
62
3
10
2512.97266852256
20
2901.69780911871
30
0
40
0.0999999999999091
0
LINE
8
Základní_vrstva
62
3
10
2519.01038727256
20
2903.28209036871
30
0
11
2518.93838727256
21
2903.45009036871
31
0
0
LINE
8
Základní_vrstva
62
3
10
2518.93838727256
20
2903.45009036871
30
0
11
2518.81838727256
21
2903.63609036871
31
0
0
LINE
8
Základní_vrstva
62
3
10
2518.81838727256
20
2903.63609036871
30
0
11
2518.76438727256
21
2903.84009036871
31
0
0
LINE
8
Základní_vrstva
62
3
10
2518.76438727256
20
2903.84009036871
30
0
11
2518.68038727256
21
2904.02009036871
31
0
0
LINE
8
Základní_vrstva
62
3
10
2518.68038727256
20
2904.02009036871
30
0
11
2518.48838727256
21
2904.11609036871
31
0
0
LINE
8
Základní_vrstva
62
3
10
2518.48838727256
20
2904.11609036871
30
0
11
2518.29038727256
21
2904.17009036871
31
0
0
LINE
8
Základní_vrstva
62
3
10
2518.29038727256
20
2904.17009036871
30
0
11
2518.12838727256
21
2904.28409036871
31
0
0
LINE
8
Základní_vrstva
62
3
10
2518.12838727256
20
2904.28409036871
30
0
11
2517.94238727256
21
2904.36809036871
31
0
0
LINE
8
Základní_vrstva
62
3
10
2517.94238727256
20
2904.36809036871
30
0
11
2517.74438727256
21
2904.31409036871
31
0
0
LINE
8
Základní_vrstva
62
3
10
2517.74438727256
20
2904.31409036871
30
0
11
2517.57038727256
21
2904.23009036871
31
0
0
LINE
8
Základní_vrstva
62
3
10
2517.57038727256
20
2904.23009036871
30
0
11
2517.36638727256
21
2904.21209036871
31
0
0
LINE
8
Základní_vrstva
62
3
10
2517.36638727256
20
2904.21209036871
30
0
11
2517.16238727256
21
2904.16409036871
31
0
0
LINE
8
Základní_vrstva
62
3
10
2517.16238727256
20
2904.16409036871
30
0
11
2517.03638727256
21
2903.99009036871
31
0
0
LINE
8
Základní_vrstva
62
3
10
2517.03638727256
20
2903.99009036871
30
0
11
2516.94638727256
21
2903.80409036871
31
0
0
LINE
8
Základní_vrstva
62
3
10
2516.94638727256
20
2903.80409036871
30
0
11
2516.80838727256
21
2903.66609036871
31
0
0
LINE
8
Základní_vrstva
62
3
10
2516.80838727256
20
2903.66609036871
30
0
11
2516.68838727256
21
2903.48009036871
31
0
0
LINE
8
Základní_vrstva
62
3
10
2516.68838727256
20
2903.48009036871
30
0
11
2516.70638727256
21
2903.27609036871
31
0
0
LINE
8
Základní_vrstva
62
3
10
2516.70638727256
20
2903.27609036871
30
0
11
2516.76038727256
21
2903.09009036871
31
0
0
LINE
8
Základní_vrstva
62
3
10
2516.76038727256
20
2903.09009036871
30
0
11
2516.73638727256
21
2902.89209036871
31
0
0
LINE
8
Základní_vrstva
62
3
10
2516.73638727256
20
2902.89209036871
30
0
11
2516.75438727256
21
2902.68809036871
31
0
0
LINE
8
Základní_vrstva
62
3
10
2516.75438727256
20
2902.68809036871
30
0
11
2516.90438727256
21
2902.53209036871
31
0
0
LINE
8
Základní_vrstva
62
3
10
2516.90438727256
20
2902.53209036871
30
0
11
2517.07838727256
21
2902.41209036871
31
0
0
LINE
8
Základní_vrstva
62
3
10
2517.07838727256
20
2902.41209036871
30
0
11
2517.19238727256
21
2902.25009036871
31
0
0
LINE
8
Základní_vrstva
62
3
10
2517.19238727256
20
2902.25009036871
30
0
11
2517.32438727256
21
2902.11209036871
31
0
0
LINE
8
Základní_vrstva
62
3
10
2517.32438727256
20
2902.11209036871
30
0
11
2517.52838727256
21
2902.09409036871
31
0
0
LINE
8
Základní_vrstva
62
3
10
2517.52838727256
20
2902.09409036871
30
0
11
2517.73838727256
21
2902.11209036871
31
0
0
LINE
8
Základní_vrstva
62
3
10
2517.73838727256
20
2902.11209036871
30
0
11
2517.93038727256
21
2902.05809036871
31
0
0
LINE
8
Základní_vrstva
62
3
10
2517.93038727256
20
2902.05809036871
30
0
11
2518.14038727256
21
2902.04009036871
31
0
0
LINE
8
Základní_vrstva
62
3
10
2518.14038727256
20
2902.04009036871
30
0
11
2518.30838727256
21
2902.15409036871
31
0
0
LINE
8
Základní_vrstva
62
3
10
2518.30838727256
20
2902.15409036871
30
0
11
2518.44638727256
21
2902.29809036871
31
0
0
LINE
8
Základní_vrstva
62
3
10
2518.44638727256
20
2902.29809036871
30
0
11
2518.63238727256
21
2902.38209036871
31
0
0
LINE
8
Základní_vrstva
62
3
10
2518.63238727256
20
2902.38209036871
30
0
11
2518.80638727256
21
2902.50809036871
31
0
0
LINE
8
Základní_vrstva
62
3
10
2518.80638727256
20
2902.50809036871
30
0
11
2518.86638727256
21
2902.71209036871
31
0
0
LINE
8
Základní_vrstva
62
3
10
2518.86638727256
20
2902.71209036871
30
0
11
2518.87838727256
21
2902.91609036871
31
0
0
LINE
8
Základní_vrstva
62
3
10
2518.87838727256
20
2902.91609036871
30
0
11
2518.96238727256
21
2903.10809036871
31
0
0
LINE
8
Základní_vrstva
62
3
10
2518.96238727256
20
2903.10809036871
30
0
11
2519.01638727256
21
2903.28209036871
31
0
0
CIRCLE
8
Základní_vrstva
62
3
10
2517.83438727256
20
2903.18609036871
30
0
40
0.0999999999999091
0
LINE
8
Základní_vrstva
62
3
10
2523.67366852256
20
2904.57193411871
30
0
11
2523.60166852256
21
2904.73993411871
31
0
0
LINE
8
Základní_vrstva
62
3
10
2523.60166852256
20
2904.73993411871
30
0
11
2523.48166852256
21
2904.92593411871
31
0
0
LINE
8
Základní_vrstva
62
3
10
2523.48166852256
20
2904.92593411871
30
0
11
2523.42766852256
21
2905.12993411871
31
0
0
LINE
8
Základní_vrstva
62
3
10
2523.42766852256
20
2905.12993411871
30
0
11
2523.34366852256
21
2905.30993411871
31
0
0
LINE
8
Základní_vrstva
62
3
10
2523.34366852256
20
2905.30993411871
30
0
11
2523.15166852256
21
2905.40593411871
31
0
0
LINE
8
Základní_vrstva
62
3
10
2523.15166852256
20
2905.40593411871
30
0
11
2522.95366852256
21
2905.45993411871
31
0
0
LINE
8
Základní_vrstva
62
3
10
2522.95366852256
20
2905.45993411871
30
0
11
2522.79166852256
21
2905.57393411871
31
0
0
LINE
8
Základní_vrstva
62
3
10
2522.79166852256
20
2905.57393411871
30
0
11
2522.60566852256
21
2905.65793411871
31
0
0
LINE
8
Základní_vrstva
62
3
10
2522.60566852256
20
2905.65793411871
30
0
11
2522.40766852256
21
2905.60393411871
31
0
0
LINE
8
Základní_vrstva
62
3
10
2522.40766852256
20
2905.60393411871
30
0
11
2522.23366852256
21
2905.51993411871
31
0
0
LINE
8
Základní_vrstva
62
3
10
2522.23366852256
20
2905.51993411871
30
0
11
2522.02966852256
21
2905.50193411871
31
0
0
LINE
8
Základní_vrstva
62
3
10
2522.02966852256
20
2905.50193411871
30
0
11
2521.82566852256
21
2905.45393411871
31
0
0
LINE
8
Základní_vrstva
62
3
10
2521.82566852256
20
2905.45393411871
30
0
11
2521.69966852256
21
2905.27993411871
31
0
0
LINE
8
Základní_vrstva
62
3
10
2521.69966852256
20
2905.27993411871
30
0
11
2521.60966852256
21
2905.09393411871
31
0
0
LINE
8
Základní_vrstva
62
3
10
2521.60966852256
20
2905.09393411871
30
0
11
2521.47166852256
21
2904.95593411871
31
0
0
LINE
8
Základní_vrstva
62
3
10
2521.47166852256
20
2904.95593411871
30
0
11
2521.35166852256
21
2904.76993411871
31
0
0
LINE
8
Základní_vrstva
62
3
10
2521.35166852256
20
2904.76993411871
30
0
11
2521.36966852256
21
2904.56593411871
31
0
0
LINE
8
Základní_vrstva
62
3
10
2521.36966852256
20
2904.56593411871
30
0
11
2521.42366852256
21
2904.37993411871
31
0
0
LINE
8
Základní_vrstva
62
3
10
2521.42366852256
20
2904.37993411871
30
0
11
2521.39966852256
21
2904.18193411871
31
0
0
LINE
8
Základní_vrstva
62
3
10
2521.39966852256
20
2904.18193411871
30
0
11
2521.41766852256
21
2903.97793411871
31
0
0
LINE
8
Základní_vrstva
62
3
10
2521.41766852256
20
2903.97793411871
30
0
11
2521.56766852256
21
2903.82193411871
31
0
0
LINE
8
Základní_vrstva
62
3
10
2521.56766852256
20
2903.82193411871
30
0
11
2521.74166852256
21
2903.70193411871
31
0
0
LINE
8
Základní_vrstva
62
3
10
2521.74166852256
20
2903.70193411871
30
0
11
2521.85566852256
21
2903.53993411871
31
0
0
LINE
8
Základní_vrstva
62
3
10
2521.85566852256
20
2903.53993411871
30
0
11
2521.98766852256
21
2903.40193411871
31
0
0
LINE
8
Základní_vrstva
62
3
10
2521.98766852256
20
2903.40193411871
30
0
11
2522.19166852256
21
2903.38393411871
31
0
0
LINE
8
Základní_vrstva
62
3
10
2522.19166852256
20
2903.38393411871
30
0
11
2522.40166852256
21
2903.40193411871
31
0
0
LINE
8
Základní_vrstva
62
3
10
2522.40166852256
20
2903.40193411871
30
0
11
2522.59366852256
21
2903.34793411871
31
0
0
LINE
8
Základní_vrstva
62
3
10
2522.59366852256
20
2903.34793411871
30
0
11
2522.80366852256
21
2903.32993411871
31
0
0
LINE
8
Základní_vrstva
62
3
10
2522.80366852256
20
2903.32993411871
30
0
11
2522.97166852256
21
2903.44393411871
31
0
0
LINE
8
Základní_vrstva
62
3
10
2522.97166852256
20
2903.44393411871
30
0
11
2523.10966852256
21
2903.58793411871
31
0
0
LINE
8
Základní_vrstva
62
3
10
2523.10966852256
20
2903.58793411871
30
0
11
2523.29566852256
21
2903.67193411871
31
0
0
LINE
8
Základní_vrstva
62
3
10
2523.29566852256
20
2903.67193411871
30
0
11
2523.46966852256
21
2903.79793411871
31
0
0
LINE
8
Základní_vrstva
62
3
10
2523.46966852256
20
2903.79793411871
30
0
11
2523.52966852256
21
2904.00193411871
31
0
0
LINE
8
Základní_vrstva
62
3
10
2523.52966852256
20
2904.00193411871
30
0
11
2523.54166852256
21
2904.20593411871
31
0
0
LINE
8
Základní_vrstva
62
3
10
2523.54166852256
20
2904.20593411871
30
0
11
2523.62566852256
21
2904.39793411871
31
0
0
LINE
8
Základní_vrstva
62
3
10
2523.62566852256
20
2904.39793411871
30
0
11
2523.67966852256
21
2904.57193411871
31
0
0
CIRCLE
8
Základní_vrstva
62
3
10
2522.49766852256
20
2904.47593411871
30
0
40
0.0999999999999091
0
LINE
8
Základní_vrstva
62
3
10
2528.53538727256
20
2906.25865286871
30
0
11
2528.46338727256
21
2906.42665286871
31
0
0
LINE
8
Základní_vrstva
62
3
10
2528.46338727256
20
2906.42665286871
30
0
11
2528.34338727256
21
2906.61265286871
31
0
0
LINE
8
Základní_vrstva
62
3
10
2528.34338727256
20
2906.61265286871
30
0
11
2528.28938727256
21
2906.81665286871
31
0
0
LINE
8
Základní_vrstva
62
3
10
2528.28938727256
20
2906.81665286871
30
0
11
2528.20538727256
21
2906.99665286871
31
0
0
LINE
8
Základní_vrstva
62
3
10
2528.20538727256
20
2906.99665286871
30
0
11
2528.01338727256
21
2907.09265286871
31
0
0
LINE
8
Základní_vrstva
62
3
10
2528.01338727256
20
2907.09265286871
30
0
11
2527.81538727256
21
2907.14665286871
31
0
0
LINE
8
Základní_vrstva
62
3
10
2527.81538727256
20
2907.14665286871
30
0
11
2527.65338727256
21
2907.26065286871
31
0
0
LINE
8
Základní_vrstva
62
3
10
2527.65338727256
20
2907.26065286871
30
0
11
2527.46738727256
21
2907.34465286871
31
0
0
LINE
8
Základní_vrstva
62
3
10
2527.46738727256
20
2907.34465286871
30
0
11
2527.26938727256
21
2907.29065286871
31
0
0
LINE
8
Základní_vrstva
62
3
10
2527.26938727256
20
2907.29065286871
30
0
11
2527.09538727256
21
2907.20665286871
31
0
0
LINE
8
Základní_vrstva
62
3
10
2527.09538727256
20
2907.20665286871
30
0
11
2526.89138727256
21
2907.18865286871
31
0
0
LINE
8
Základní_vrstva
62
3
10
2526.89138727256
20
2907.18865286871
30
0
11
2526.68738727256
21
2907.14065286871
31
0
0
LINE
8
Základní_vrstva
62
3
10
2526.68738727256
20
2907.14065286871
30
0
11
2526.56138727256
21
2906.96665286871
31
0
0
LINE
8
Základní_vrstva
62
3
10
2526.56138727256
20
2906.96665286871
30
0
11
2526.47138727256
21
2906.78065286871
31
0
0
LINE
8
Základní_vrstva
62
3
10
2526.47138727256
20
2906.78065286871
30
0
11
2526.33338727256
21
2906.64265286871
31
0
0
LINE
8
Základní_vrstva
62
3
10
2526.33338727256
20
2906.64265286871
30
0
11
2526.21338727256
21
2906.45665286871
31
0
0
LINE
8
Základní_vrstva
62
3
10
2526.21338727256
20
2906.45665286871
30
0
11
2526.23138727256
21
2906.25265286871
31
0
0
LINE
8
Základní_vrstva
62
3
10
2526.23138727256
20
2906.25265286871
30
0
11
2526.28538727256
21
2906.06665286871
31
0
0
LINE
8
Základní_vrstva
62
3
10
2526.28538727256
20
2906.06665286871
30
0
11
2526.26138727256
21
2905.86865286871
31
0
0
LINE
8
Základní_vrstva
62
3
10
2526.26138727256
20
2905.86865286871
30
0
11
2526.27938727256
21
2905.66465286871
31
0
0
LINE
8
Základní_vrstva
62
3
10
2526.27938727256
20
2905.66465286871
30
0
11
2526.42938727256
21
2905.50865286871
31
0
0
LINE
8
Základní_vrstva
62
3
10
2526.42938727256
20
2905.50865286871
30
0
11
2526.60338727256
21
2905.38865286871
31
0
0
LINE
8
Základní_vrstva
62
3
10
2526.60338727256
20
2905.38865286871
30
0
11
2526.71738727256
21
2905.22665286871
31
0
0
LINE
8
Základní_vrstva
62
3
10
2526.71738727256
20
2905.22665286871
30
0
11
2526.84938727256
21
2905.08865286871
31
0
0
LINE
8
Základní_vrstva
62
3
10
2526.84938727256
20
2905.08865286871
30
0
11
2527.05338727256
21
2905.07065286871
31
0
0
LINE
8
Základní_vrstva
62
3
10
2527.05338727256
20
2905.07065286871
30
0
11
2527.26338727256
21
2905.08865286871
31
0
0
LINE
8
Základní_vrstva
62
3
10
2527.26338727256
20
2905.08865286871
30
0
11
2527.45538727256
21
2905.03465286871
31
0
0
LINE
8
Základní_vrstva
62
3
10
2527.45538727256
20
2905.03465286871
30
0
11
2527.66538727256
21
2905.01665286871
31
0
0
LINE
8
Základní_vrstva
62
3
10
2527.66538727256
20
2905.01665286871
30
0
11
2527.83338727256
21
2905.13065286871
31
0
0
LINE
8
Základní_vrstva
62
3
10
2527.83338727256
20
2905.13065286871
30
0
11
2527.97138727256
21
2905.27465286871
31
0
0
LINE
8
Základní_vrstva
62
3
10
2527.97138727256
20
2905.27465286871
30
0
11
2528.15738727256
21
2905.35865286871
31
0
0
LINE
8
Základní_vrstva
62
3
10
2528.15738727256
20
2905.35865286871
30
0
11
2528.33138727256
21
2905.48465286871
31
0
0
LINE
8
Základní_vrstva
62
3
10
2528.33138727256
20
2905.48465286871
30
0
11
2528.39138727256
21
2905.68865286871
31
0
0
LINE
8
Základní_vrstva
62
3
10
2528.39138727256
20
2905.68865286871
30
0
11
2528.40338727256
21
2905.89265286871
31
0
0
LINE
8
Základní_vrstva
62
3
10
2528.40338727256
20
2905.89265286871
30
0
11
2528.48738727256
21
2906.08465286871
31
0
0
LINE
8
Základní_vrstva
62
3
10
2528.48738727256
20
2906.08465286871
30
0
11
2528.54138727256
21
2906.25865286871
31
0
0
CIRCLE
8
Základní_vrstva
62
3
10
2527.35938727256
20
2906.16265286871
30
0
40
0.0999999999999091
0
LINE
8
Základní_vrstva
62
3
10
2533.19866852256
20
2907.84615286871
30
0
11
2533.12666852256
21
2908.01415286871
31
0
0
LINE
8
Základní_vrstva
62
3
10
2533.12666852256
20
2908.01415286871
30
0
11
2533.00666852256
21
2908.20015286871
31
0
0
LINE
8
Základní_vrstva
62
3
10
2533.00666852256
20
2908.20015286871
30
0
11
2532.95266852256
21
2908.40415286871
31
0
0
LINE
8
Základní_vrstva
62
3
10
2532.95266852256
20
2908.40415286871
30
0
11
2532.86866852256
21
2908.58415286871
31
0
0
LINE
8
Základní_vrstva
62
3
10
2532.86866852256
20
2908.58415286871
30
0
11
2532.67666852256
21
2908.68015286871
31
0
0
LINE
8
Základní_vrstva
62
3
10
2532.67666852256
20
2908.68015286871
30
0
11
2532.47866852256
21
2908.73415286871
31
0
0
LINE
8
Základní_vrstva
62
3
10
2532.47866852256
20
2908.73415286871
30
0
11
2532.31666852256
21
2908.84815286871
31
0
0
LINE
8
Základní_vrstva
62
3
10
2532.31666852256
20
2908.84815286871
30
0
11
2532.13066852256
21
2908.93215286871
31
0
0
LINE
8
Základní_vrstva
62
3
10
2532.13066852256
20
2908.93215286871
30
0
11
2531.93266852256
21
2908.87815286871
31
0
0
LINE
8
Základní_vrstva
62
3
10
2531.93266852256
20
2908.87815286871
30
0
11
2531.75866852256
21
2908.79415286871
31
0
0
LINE
8
Základní_vrstva
62
3
10
2531.75866852256
20
2908.79415286871
30
0
11
2531.55466852256
21
2908.77615286871
31
0
0
LINE
8
Základní_vrstva
62
3
10
2531.55466852256
20
2908.77615286871
30
0
11
2531.35066852256
21
2908.72815286871
31
0
0
LINE
8
Základní_vrstva
62
3
10
2531.35066852256
20
2908.72815286871
30
0
11
2531.22466852256
21
2908.55415286871
31
0
0
LINE
8
Základní_vrstva
62
3
10
2531.22466852256
20
2908.55415286871
30
0
11
2531.13466852256
21
2908.36815286871
31
0
0
LINE
8
Základní_vrstva
62
3
10
2531.13466852256
20
2908.36815286871
30
0
11
2530.99666852256
21
2908.23015286871
31
0
0
LINE
8
Základní_vrstva
62
3
10
2530.99666852256
20
2908.23015286871
30
0
11
2530.87666852256
21
2908.04415286871
31
0
0
LINE
8
Základní_vrstva
62
3
10
2530.87666852256
20
2908.04415286871
30
0
11
2530.89466852256
21
2907.84015286871
31
0
0
LINE
8
Základní_vrstva
62
3
10
2530.89466852256
20
2907.84015286871
30
0
11
2530.94866852256
21
2907.65415286871
31
0
0
LINE
8
Základní_vrstva
62
3
10
2530.94866852256
20
2907.65415286871
30
0
11
2530.92466852256
21
2907.45615286871
31
0
0
LINE
8
Základní_vrstva
62
3
10
2530.92466852256
20
2907.45615286871
30
0
11
2530.94266852256
21
2907.25215286871
31
0
0
LINE
8
Základní_vrstva
62
3
10
2530.94266852256
20
2907.25215286871
30
0
11
2531.09266852256
21
2907.09615286871
31
0
0
LINE
8
Základní_vrstva
62
3
10
2531.09266852256
20
2907.09615286871
30
0
11
2531.26666852256
21
2906.97615286871
31
0
0
LINE
8
Základní_vrstva
62
3
10
2531.26666852256
20
2906.97615286871
30
0
11
2531.38066852256
21
2906.81415286871
31
0
0
LINE
8
Základní_vrstva
62
3
10
2531.38066852256
20
2906.81415286871
30
0
11
2531.51266852256
21
2906.67615286871
31
0
0
LINE
8
Základní_vrstva
62
3
10
2531.51266852256
20
2906.67615286871
30
0
11
2531.71666852256
21
2906.65815286871
31
0
0
LINE
8
Základní_vrstva
62
3
10
2531.71666852256
20
2906.65815286871
30
0
11
2531.92666852256
21
2906.67615286871
31
0
0
LINE
8
Základní_vrstva
62
3
10
2531.92666852256
20
2906.67615286871
30
0
11
2532.11866852256
21
2906.62215286871
31
0
0
LINE
8
Základní_vrstva
62
3
10
2532.11866852256
20
2906.62215286871
30
0
11
2532.32866852256
21
2906.60415286871
31
0
0
LINE
8
Základní_vrstva
62
3
10
2532.32866852256
20
2906.60415286871
30
0
11
2532.49666852256
21
2906.71815286871
31
0
0
LINE
8
Základní_vrstva
62
3
10
2532.49666852256
20
2906.71815286871
30
0
11
2532.63466852256
21
2906.86215286871
31
0
0
LINE
8
Základní_vrstva
62
3
10
2532.63466852256
20
2906.86215286871
30
0
11
2532.82066852256
21
2906.94615286871
31
0
0
LINE
8
Základní_vrstva
62
3
10
2532.82066852256
20
2906.94615286871
30
0
11
2532.99466852256
21
2907.07215286871
31
0
0
LINE
8
Základní_vrstva
62
3
10
2532.99466852256
20
2907.07215286871
30
0
11
2533.05466852256
21
2907.27615286871
31
0
0
LINE
8
Základní_vrstva
62
3
10
2533.05466852256
20
2907.27615286871
30
0
11
2533.06666852256
21
2907.48015286871
31
0
0
LINE
8
Základní_vrstva
62
3
10
2533.06666852256
20
2907.48015286871
30
0
11
2533.15066852256
21
2907.67215286871
31
0
0
LINE
8
Základní_vrstva
62
3
10
2533.15066852256
20
2907.67215286871
30
0
11
2533.20466852256
21
2907.84615286871
31
0
0
CIRCLE
8
Základní_vrstva
62
3
10
2532.02266852256
20
2907.75015286871
30
0
40
0.0999999999999091
0
LINE
8
Základní_vrstva
62
3
10
2538.15960602256
20
2909.23521536871
30
0
11
2538.08760602256
21
2909.40321536871
31
0
0
LINE
8
Základní_vrstva
62
3
10
2538.08760602256
20
2909.40321536871
30
0
11
2537.96760602256
21
2909.58921536871
31
0
0
LINE
8
Základní_vrstva
62
3
10
2537.96760602256
20
2909.58921536871
30
0
11
2537.91360602256
21
2909.79321536871
31
0
0
LINE
8
Základní_vrstva
62
3
10
2537.91360602256
20
2909.79321536871
30
0
11
2537.82960602256
21
2909.97321536871
31
0
0
LINE
8
Základní_vrstva
62
3
10
2537.82960602256
20
2909.97321536871
30
0
11
2537.63760602256
21
2910.06921536871
31
0
0
LINE
8
Základní_vrstva
62
3
10
2537.63760602256
20
2910.06921536871
30
0
11
2537.43960602256
21
2910.12321536871
31
0
0
LINE
8
Základní_vrstva
62
3
10
2537.43960602256
20
2910.12321536871
30
0
11
2537.27760602256
21
2910.23721536871
31
0
0
LINE
8
Základní_vrstva
62
3
10
2537.27760602256
20
2910.23721536871
30
0
11
2537.09160602256
21
2910.32121536871
31
0
0
LINE
8
Základní_vrstva
62
3
10
2537.09160602256
20
2910.32121536871
30
0
11
2536.89360602256
21
2910.26721536871
31
0
0
LINE
8
Základní_vrstva
62
3
10
2536.89360602256
20
2910.26721536871
30
0
11
2536.71960602256
21
2910.18321536871
31
0
0
LINE
8
Základní_vrstva
62
3
10
2536.71960602256
20
2910.18321536871
30
0
11
2536.51560602256
21
2910.16521536871
31
0
0
LINE
8
Základní_vrstva
62
3
10
2536.51560602256
20
2910.16521536871
30
0
11
2536.31160602256
21
2910.11721536871
31
0
0
LINE
8
Základní_vrstva
62
3
10
2536.31160602256
20
2910.11721536871
30
0
11
2536.18560602256
21
2909.94321536871
31
0
0
LINE
8
Základní_vrstva
62
3
10
2536.18560602256
20
2909.94321536871
30
0
11
2536.09560602256
21
2909.75721536871
31
0
0
LINE
8
Základní_vrstva
62
3
10
2536.09560602256
20
2909.75721536871
30
0
11
2535.95760602256
21
2909.61921536871
31
0
0
LINE
8
Základní_vrstva
62
3
10
2535.95760602256
20
2909.61921536871
30
0
11
2535.83760602256
21
2909.43321536871
31
0
0
LINE
8
Základní_vrstva
62
3
10
2535.83760602256
20
2909.43321536871
30
0
11
2535.85560602256
21
2909.22921536871
31
0
0
LINE
8
Základní_vrstva
62
3
10
2535.85560602256
20
2909.22921536871
30
0
11
2535.90960602256
21
2909.04321536871
31
0
0
LINE
8
Základní_vrstva
62
3
10
2535.90960602256
20
2909.04321536871
30
0
11
2535.88560602256
21
2908.84521536871
31
0
0
LINE
8
Základní_vrstva
62
3
10
2535.88560602256
20
2908.84521536871
30
0
11
2535.90360602256
21
2908.64121536871
31
0
0
LINE
8
Základní_vrstva
62
3
10
2535.90360602256
20
2908.64121536871
30
0
11
2536.05360602256
21
2908.48521536871
31
0
0
LINE
8
Základní_vrstva
62
3
10
2536.05360602256
20
2908.48521536871
30
0
11
2536.22760602256
21
2908.36521536871
31
0
0
LINE
8
Základní_vrstva
62
3
10
2536.22760602256
20
2908.36521536871
30
0
11
2536.34160602256
21
2908.20321536871
31
0
0
LINE
8
Základní_vrstva
62
3
10
2536.34160602256
20
2908.20321536871
30
0
11
2536.47360602256
21
2908.06521536871
31
0
0
LINE
8
Základní_vrstva
62
3
10
2536.47360602256
20
2908.06521536871
30
0
11
2536.67760602256
21
2908.04721536871
31
0
0
LINE
8
Základní_vrstva
62
3
10
2536.67760602256
20
2908.04721536871
30
0
11
2536.88760602256
21
2908.06521536871
31
0
0
LINE
8
Základní_vrstva
62
3
10
2536.88760602256
20
2908.06521536871
30
0
11
2537.07960602256
21
2908.01121536871
31
0
0
LINE
8
Základní_vrstva
62
3
10
2537.07960602256
20
2908.01121536871
30
0
11
2537.28960602256
21
2907.99321536871
31
0
0
LINE
8
Základní_vrstva
62
3
10
2537.28960602256
20
2907.99321536871
30
0
11
2537.45760602256
21
2908.10721536871
31
0
0
LINE
8
Základní_vrstva
62
3
10
2537.45760602256
20
2908.10721536871
30
0
11
2537.59560602256
21
2908.25121536871
31
0
0
LINE
8
Základní_vrstva
62
3
10
2537.59560602256
20
2908.25121536871
30
0
11
2537.78160602256
21
2908.33521536871
31
0
0
LINE
8
Základní_vrstva
62
3
10
2537.78160602256
20
2908.33521536871
30
0
11
2537.95560602256
21
2908.46121536871
31
0
0
LINE
8
Základní_vrstva
62
3
10
2537.95560602256
20
2908.46121536871
30
0
11
2538.01560602256
21
2908.66521536871
31
0
0
LINE
8
Základní_vrstva
62
3
10
2538.01560602256
20
2908.66521536871
30
0
11
2538.02760602256
21
2908.86921536871
31
0
0
LINE
8
Základní_vrstva
62
3
10
2538.02760602256
20
2908.86921536871
30
0
11
2538.11160602256
21
2909.06121536871
31
0
0
LINE
8
Základní_vrstva
62
3
10
2538.11160602256
20
2909.06121536871
30
0
11
2538.16560602256
21
2909.23521536871
31
0
0
CIRCLE
8
Základní_vrstva
62
3
10
2536.98360602256
20
2909.13921536871
30
0
40
0.0999999999999091
0
LINE
8
Základní_vrstva
62
3
10
2548.87523102256
20
2912.50943411871
30
0
11
2548.80323102256
21
2912.67743411871
31
0
0
LINE
8
Základní_vrstva
62
3
10
2548.80323102256
20
2912.67743411871
30
0
11
2548.68323102256
21
2912.86343411871
31
0
0
LINE
8
Základní_vrstva
62
3
10
2548.68323102256
20
2912.86343411871
30
0
11
2548.62923102256
21
2913.06743411871
31
0
0
LINE
8
Základní_vrstva
62
3
10
2548.62923102256
20
2913.06743411871
30
0
11
2548.54523102256
21
2913.24743411871
31
0
0
LINE
8
Základní_vrstva
62
3
10
2548.54523102256
20
2913.24743411871
30
0
11
2548.35323102256
21
2913.34343411871
31
0
0
LINE
8
Základní_vrstva
62
3
10
2548.35323102256
20
2913.34343411871
30
0
11
2548.15523102256
21
2913.39743411871
31
0
0
LINE
8
Základní_vrstva
62
3
10
2548.15523102256
20
2913.39743411871
30
0
11
2547.99323102256
21
2913.51143411871
31
0
0
LINE
8
Základní_vrstva
62
3
10
2547.99323102256
20
2913.51143411871
30
0
11
2547.80723102256
21
2913.59543411871
31
0
0
LINE
8
Základní_vrstva
62
3
10
2547.80723102256
20
2913.59543411871
30
0
11
2547.60923102256
21
2913.54143411871
31
0
0
LINE
8
Základní_vrstva
62
3
10
2547.60923102256
20
2913.54143411871
30
0
11
2547.43523102256
21
2913.45743411871
31
0
0
LINE
8
Základní_vrstva
62
3
10
2547.43523102256
20
2913.45743411871
30
0
11
2547.23123102256
21
2913.43943411871
31
0
0
LINE
8
Základní_vrstva
62
3
10
2547.23123102256
20
2913.43943411871
30
0
11
2547.02723102256
21
2913.39143411871
31
0
0
LINE
8
Základní_vrstva
62
3
10
2547.02723102256
20
2913.39143411871
30
0
11
2546.90123102256
21
2913.21743411871
31
0
0
LINE
8
Základní_vrstva
62
3
10
2546.90123102256
20
2913.21743411871
30
0
11
2546.81123102256
21
2913.03143411871
31
0
0
LINE
8
Základní_vrstva
62
3
10
2546.81123102256
20
2913.03143411871
30
0
11
2546.67323102256
21
2912.89343411871
31
0
0
LINE
8
Základní_vrstva
62
3
10
2546.67323102256
20
2912.89343411871
30
0
11
2546.55323102256
21
2912.70743411871
31
0
0
LINE
8
Základní_vrstva
62
3
10
2546.55323102256
20
2912.70743411871
30
0
11
2546.57123102256
21
2912.50343411871
31
0
0
LINE
8
Základní_vrstva
62
3
10
2546.57123102256
20
2912.50343411871
30
0
11
2546.62523102256
21
2912.31743411871
31
0
0
LINE
8
Základní_vrstva
62
3
10
2546.62523102256
20
2912.31743411871
30
0
11
2546.60123102256
21
2912.11943411871
31
0
0
LINE
8
Základní_vrstva
62
3
10
2546.60123102256
20
2912.11943411871
30
0
11
2546.61923102256
21
2911.91543411871
31
0
0
LINE
8
Základní_vrstva
62
3
10
2546.61923102256
20
2911.91543411871
30
0
11
2546.76923102256
21
2911.75943411871
31
0
0
LINE
8
Základní_vrstva
62
3
10
2546.76923102256
20
2911.75943411871
30
0
11
2546.94323102256
21
2911.63943411871
31
0
0
LINE
8
Základní_vrstva
62
3
10
2546.94323102256
20
2911.63943411871
30
0
11
2547.05723102256
21
2911.47743411871
31
0
0
LINE
8
Základní_vrstva
62
3
10
2547.05723102256
20
2911.47743411871
30
0
11
2547.18923102256
21
2911.33943411871
31
0
0
LINE
8
Základní_vrstva
62
3
10
2547.18923102256
20
2911.33943411871
30
0
11
2547.39323102256
21
2911.32143411871
31
0
0
LINE
8
Základní_vrstva
62
3
10
2547.39323102256
20
2911.32143411871
30
0
11
2547.60323102256
21
2911.33943411871
31
0
0
LINE
8
Základní_vrstva
62
3
10
2547.60323102256
20
2911.33943411871
30
0
11
2547.79523102256
21
2911.28543411871
31
0
0
LINE
8
Základní_vrstva
62
3
10
2547.79523102256
20
2911.28543411871
30
0
11
2548.00523102256
21
2911.26743411871
31
0
0
LINE
8
Základní_vrstva
62
3
10
2548.00523102256
20
2911.26743411871
30
0
11
2548.17323102256
21
2911.38143411871
31
0
0
LINE
8
Základní_vrstva
62
3
10
2548.17323102256
20
2911.38143411871
30
0
11
2548.31123102256
21
2911.52543411871
31
0
0
LINE
8
Základní_vrstva
62
3
10
2548.31123102256
20
2911.52543411871
30
0
11
2548.49723102256
21
2911.60943411871
31
0
0
LINE
8
Základní_vrstva
62
3
10
2548.49723102256
20
2911.60943411871
30
0
11
2548.67123102256
21
2911.73543411871
31
0
0
LINE
8
Základní_vrstva
62
3
10
2548.67123102256
20
2911.73543411871
30
0
11
2548.73123102256
21
2911.93943411871
31
0
0
LINE
8
Základní_vrstva
62
3
10
2548.73123102256
20
2911.93943411871
30
0
11
2548.74323102256
21
2912.14343411871
31
0
0
LINE
8
Základní_vrstva
62
3
10
2548.74323102256
20
2912.14343411871
30
0
11
2548.82723102256
21
2912.33543411871
31
0
0
LINE
8
Základní_vrstva
62
3
10
2548.82723102256
20
2912.33543411871
30
0
11
2548.88123102256
21
2912.50943411871
31
0
0
CIRCLE
8
Základní_vrstva
62
3
10
2547.69923102256
20
2912.41343411871
30
0
40
0.0999999999999091
0
LINE
8
Základní_vrstva
62
3
10
2553.83616852256
20
2913.89849661871
30
0
11
2553.76416852256
21
2914.06649661871
31
0
0
LINE
8
Základní_vrstva
62
3
10
2553.76416852256
20
2914.06649661871
30
0
11
2553.64416852256
21
2914.25249661871
31
0
0
LINE
8
Základní_vrstva
62
3
10
2553.64416852256
20
2914.25249661871
30
0
11
2553.59016852256
21
2914.45649661871
31
0
0
LINE
8
Základní_vrstva
62
3
10
2553.59016852256
20
2914.45649661871
30
0
11
2553.50616852256
21
2914.63649661871
31
0
0
LINE
8
Základní_vrstva
62
3
10
2553.50616852256
20
2914.63649661871
30
0
11
2553.31416852256
21
2914.73249661871
31
0
0
LINE
8
Základní_vrstva
62
3
10
2553.31416852256
20
2914.73249661871
30
0
11
2553.11616852256
21
2914.78649661871
31
0
0
LINE
8
Základní_vrstva
62
3
10
2553.11616852256
20
2914.78649661871
30
0
11
2552.95416852256
21
2914.90049661871
31
0
0
LINE
8
Základní_vrstva
62
3
10
2552.95416852256
20
2914.90049661871
30
0
11
2552.76816852256
21
2914.98449661871
31
0
0
LINE
8
Základní_vrstva
62
3
10
2552.76816852256
20
2914.98449661871
30
0
11
2552.57016852256
21
2914.93049661871
31
0
0
LINE
8
Základní_vrstva
62
3
10
2552.57016852256
20
2914.93049661871
30
0
11
2552.39616852256
21
2914.84649661871
31
0
0
LINE
8
Základní_vrstva
62
3
10
2552.39616852256
20
2914.84649661871
30
0
11
2552.19216852256
21
2914.82849661871
31
0
0
LINE
8
Základní_vrstva
62
3
10
2552.19216852256
20
2914.82849661871
30
0
11
2551.98816852256
21
2914.78049661871
31
0
0
LINE
8
Základní_vrstva
62
3
10
2551.98816852256
20
2914.78049661871
30
0
11
2551.86216852256
21
2914.60649661871
31
0
0
LINE
8
Základní_vrstva
62
3
10
2551.86216852256
20
2914.60649661871
30
0
11
2551.77216852256
21
2914.42049661871
31
0
0
LINE
8
Základní_vrstva
62
3
10
2551.77216852256
20
2914.42049661871
30
0
11
2551.63416852256
21
2914.28249661871
31
0
0
LINE
8
Základní_vrstva
62
3
10
2551.63416852256
20
2914.28249661871
30
0
11
2551.51416852256
21
2914.09649661871
31
0
0
LINE
8
Základní_vrstva
62
3
10
2551.51416852256
20
2914.09649661871
30
0
11
2551.53216852256
21
2913.89249661871
31
0
0
LINE
8
Základní_vrstva
62
3
10
2551.53216852256
20
2913.89249661871
30
0
11
2551.58616852256
21
2913.70649661871
31
0
0
LINE
8
Základní_vrstva
62
3
10
2551.58616852256
20
2913.70649661871
30
0
11
2551.56216852256
21
2913.50849661871
31
0
0
LINE
8
Základní_vrstva
62
3
10
2551.56216852256
20
2913.50849661871
30
0
11
2551.58016852256
21
2913.30449661871
31
0
0
LINE
8
Základní_vrstva
62
3
10
2551.58016852256
20
2913.30449661871
30
0
11
2551.73016852256
21
2913.14849661871
31
0
0
LINE
8
Základní_vrstva
62
3
10
2551.73016852256
20
2913.14849661871
30
0
11
2551.90416852256
21
2913.02849661871
31
0
0
LINE
8
Základní_vrstva
62
3
10
2551.90416852256
20
2913.02849661871
30
0
11
2552.01816852256
21
2912.86649661871
31
0
0
LINE
8
Základní_vrstva
62
3
10
2552.01816852256
20
2912.86649661871
30
0
11
2552.15016852256
21
2912.72849661871
31
0
0
LINE
8
Základní_vrstva
62
3
10
2552.15016852256
20
2912.72849661871
30
0
11
2552.35416852256
21
2912.71049661871
31
0
0
LINE
8
Základní_vrstva
62
3
10
2552.35416852256
20
2912.71049661871
30
0
11
2552.56416852256
21
2912.72849661871
31
0
0
LINE
8
Základní_vrstva
62
3
10
2552.56416852256
20
2912.72849661871
30
0
11
2552.75616852256
21
2912.67449661871
31
0
0
LINE
8
Základní_vrstva
62
3
10
2552.75616852256
20
2912.67449661871
30
0
11
2552.96616852256
21
2912.65649661871
31
0
0
LINE
8
Základní_vrstva
62
3
10
2552.96616852256
20
2912.65649661871
30
0
11
2553.13416852256
21
2912.77049661871
31
0
0
LINE
8
Základní_vrstva
62
3
10
2553.13416852256
20
2912.77049661871
30
0
11
2553.27216852256
21
2912.91449661871
31
0
0
LINE
8
Základní_vrstva
62
3
10
2553.27216852256
20
2912.91449661871
30
0
11
2553.45816852256
21
2912.99849661871
31
0
0
LINE
8
Základní_vrstva
62
3
10
2553.45816852256
20
2912.99849661871
30
0
11
2553.63216852256
21
2913.12449661871
31
0
0
LINE
8
Základní_vrstva
62
3
10
2553.63216852256
20
2913.12449661871
30
0
11
2553.69216852256
21
2913.32849661871
31
0
0
LINE
8
Základní_vrstva
62
3
10
2553.69216852256
20
2913.32849661871
30
0
11
2553.70416852256
21
2913.53249661871
31
0
0
LINE
8
Základní_vrstva
62
3
10
2553.70416852256
20
2913.53249661871
30
0
11
2553.78816852256
21
2913.72449661871
31
0
0
LINE
8
Základní_vrstva
62
3
10
2553.78816852256
20
2913.72449661871
30
0
11
2553.84216852256
21
2913.89849661871
31
0
0
CIRCLE
8
Základní_vrstva
62
3
10
2552.66016852256
20
2913.80249661871
30
0
40
0.0999999999999091
0
LINE
8
Základní_vrstva
62
3
10
2559.19398102256
20
2915.58521536871
30
0
11
2559.12198102256
21
2915.75321536871
31
0
0
LINE
8
Základní_vrstva
62
3
10
2559.12198102256
20
2915.75321536871
30
0
11
2559.00198102256
21
2915.93921536871
31
0
0
LINE
8
Základní_vrstva
62
3
10
2559.00198102256
20
2915.93921536871
30
0
11
2558.94798102256
21
2916.14321536871
31
0
0
LINE
8
Základní_vrstva
62
3
10
2558.94798102256
20
2916.14321536871
30
0
11
2558.86398102256
21
2916.32321536871
31
0
0
LINE
8
Základní_vrstva
62
3
10
2558.86398102256
20
2916.32321536871
30
0
11
2558.67198102256
21
2916.41921536871
31
0
0
LINE
8
Základní_vrstva
62
3
10
2558.67198102256
20
2916.41921536871
30
0
11
2558.47398102256
21
2916.47321536871
31
0
0
LINE
8
Základní_vrstva
62
3
10
2558.47398102256
20
2916.47321536871
30
0
11
2558.31198102256
21
2916.58721536871
31
0
0
LINE
8
Základní_vrstva
62
3
10
2558.31198102256
20
2916.58721536871
30
0
11
2558.12598102256
21
2916.67121536871
31
0
0
LINE
8
Základní_vrstva
62
3
10
2558.12598102256
20
2916.67121536871
30
0
11
2557.92798102256
21
2916.61721536871
31
0
0
LINE
8
Základní_vrstva
62
3
10
2557.92798102256
20
2916.61721536871
30
0
11
2557.75398102256
21
2916.53321536871
31
0
0
LINE
8
Základní_vrstva
62
3
10
2557.75398102256
20
2916.53321536871
30
0
11
2557.54998102256
21
2916.51521536871
31
0
0
LINE
8
Základní_vrstva
62
3
10
2557.54998102256
20
2916.51521536871
30
0
11
2557.34598102256
21
2916.46721536871
31
0
0
LINE
8
Základní_vrstva
62
3
10
2557.34598102256
20
2916.46721536871
30
0
11
2557.21998102256
21
2916.29321536871
31
0
0
LINE
8
Základní_vrstva
62
3
10
2557.21998102256
20
2916.29321536871
30
0
11
2557.12998102256
21
2916.10721536871
31
0
0
LINE
8
Základní_vrstva
62
3
10
2557.12998102256
20
2916.10721536871
30
0
11
2556.99198102256
21
2915.96921536871
31
0
0
LINE
8
Základní_vrstva
62
3
10
2556.99198102256
20
2915.96921536871
30
0
11
2556.87198102256
21
2915.78321536871
31
0
0
LINE
8
Základní_vrstva
62
3
10
2556.87198102256
20
2915.78321536871
30
0
11
2556.88998102256
21
2915.57921536871
31
0
0
LINE
8
Základní_vrstva
62
3
10
2556.88998102256
20
2915.57921536871
30
0
11
2556.94398102256
21
2915.39321536871
31
0
0
LINE
8
Základní_vrstva
62
3
10
2556.94398102256
20
2915.39321536871
30
0
11
2556.91998102256
21
2915.19521536871
31
0
0
LINE
8
Základní_vrstva
62
3
10
2556.91998102256
20
2915.19521536871
30
0
11
2556.93798102256
21
2914.99121536871
31
0
0
LINE
8
Základní_vrstva
62
3
10
2556.93798102256
20
2914.99121536871
30
0
11
2557.08798102256
21
2914.83521536871
31
0
0
LINE
8
Základní_vrstva
62
3
10
2557.08798102256
20
2914.83521536871
30
0
11
2557.26198102256
21
2914.71521536871
31
0
0
LINE
8
Základní_vrstva
62
3
10
2557.26198102256
20
2914.71521536871
30
0
11
2557.37598102256
21
2914.55321536871
31
0
0
LINE
8
Základní_vrstva
62
3
10
2557.37598102256
20
2914.55321536871
30
0
11
2557.50798102256
21
2914.41521536871
31
0
0
LINE
8
Základní_vrstva
62
3
10
2557.50798102256
20
2914.41521536871
30
0
11
2557.71198102256
21
2914.39721536871
31
0
0
LINE
8
Základní_vrstva
62
3
10
2557.71198102256
20
2914.39721536871
30
0
11
2557.92198102256
21
2914.41521536871
31
0
0
LINE
8
Základní_vrstva
62
3
10
2557.92198102256
20
2914.41521536871
30
0
11
2558.11398102256
21
2914.36121536871
31
0
0
LINE
8
Základní_vrstva
62
3
10
2558.11398102256
20
2914.36121536871
30
0
11
2558.32398102256
21
2914.34321536871
31
0
0
LINE
8
Základní_vrstva
62
3
10
2558.32398102256
20
2914.34321536871
30
0
11
2558.49198102256
21
2914.45721536871
31
0
0
LINE
8
Základní_vrstva
62
3
10
2558.49198102256
20
2914.45721536871
30
0
11
2558.62998102256
21
2914.60121536871
31
0
0
LINE
8
Základní_vrstva
62
3
10
2558.62998102256
20
2914.60121536871
30
0
11
2558.81598102256
21
2914.68521536871
31
0
0
LINE
8
Základní_vrstva
62
3
10
2558.81598102256
20
2914.68521536871
30
0
11
2558.98998102256
21
2914.81121536871
31
0
0
LINE
8
Základní_vrstva
62
3
10
2558.98998102256
20
2914.81121536871
30
0
11
2559.04998102256
21
2915.01521536871
31
0
0
LINE
8
Základní_vrstva
62
3
10
2559.04998102256
20
2915.01521536871
30
0
11
2559.06198102256
21
2915.21921536871
31
0
0
LINE
8
Základní_vrstva
62
3
10
2559.06198102256
20
2915.21921536871
30
0
11
2559.14598102256
21
2915.41121536871
31
0
0
LINE
8
Základní_vrstva
62
3
10
2559.14598102256
20
2915.41121536871
30
0
11
2559.19998102256
21
2915.58521536871
31
0
0
CIRCLE
8
Základní_vrstva
62
3
10
2558.01798102256
20
2915.48921536871
30
0
40
0.0999999999999091
0
LINE
8
Základní_vrstva
62
3
10
2564.35335602256
20
2917.17271536871
30
0
11
2564.28135602256
21
2917.34071536871
31
0
0
LINE
8
Základní_vrstva
62
3
10
2564.28135602256
20
2917.34071536871
30
0
11
2564.16135602256
21
2917.52671536871
31
0
0
LINE
8
Základní_vrstva
62
3
10
2564.16135602256
20
2917.52671536871
30
0
11
2564.10735602256
21
2917.73071536871
31
0
0
LINE
8
Základní_vrstva
62
3
10
2564.10735602256
20
2917.73071536871
30
0
11
2564.02335602256
21
2917.91071536871
31
0
0
LINE
8
Základní_vrstva
62
3
10
2564.02335602256
20
2917.91071536871
30
0
11
2563.83135602256
21
2918.00671536871
31
0
0
LINE
8
Základní_vrstva
62
3
10
2563.83135602256
20
2918.00671536871
30
0
11
2563.63335602256
21
2918.06071536871
31
0
0
LINE
8
Základní_vrstva
62
3
10
2563.63335602256
20
2918.06071536871
30
0
11
2563.47135602256
21
2918.17471536871
31
0
0
LINE
8
Základní_vrstva
62
3
10
2563.47135602256
20
2918.17471536871
30
0
11
2563.28535602256
21
2918.25871536871
31
0
0
LINE
8
Základní_vrstva
62
3
10
2563.28535602256
20
2918.25871536871
30
0
11
2563.08735602256
21
2918.20471536871
31
0
0
LINE
8
Základní_vrstva
62
3
10
2563.08735602256
20
2918.20471536871
30
0
11
2562.91335602256
21
2918.12071536871
31
0
0
LINE
8
Základní_vrstva
62
3
10
2562.91335602256
20
2918.12071536871
30
0
11
2562.70935602256
21
2918.10271536871
31
0
0
LINE
8
Základní_vrstva
62
3
10
2562.70935602256
20
2918.10271536871
30
0
11
2562.50535602256
21
2918.05471536871
31
0
0
LINE
8
Základní_vrstva
62
3
10
2562.50535602256
20
2918.05471536871
30
0
11
2562.37935602256
21
2917.88071536871
31
0
0
LINE
8
Základní_vrstva
62
3
10
2562.37935602256
20
2917.88071536871
30
0
11
2562.28935602256
21
2917.69471536871
31
0
0
LINE
8
Základní_vrstva
62
3
10
2562.28935602256
20
2917.69471536871
30
0
11
2562.15135602256
21
2917.55671536871
31
0
0
LINE
8
Základní_vrstva
62
3
10
2562.15135602256
20
2917.55671536871
30
0
11
2562.03135602256
21
2917.37071536871
31
0
0
LINE
8
Základní_vrstva
62
3
10
2562.03135602256
20
2917.37071536871
30
0
11
2562.04935602256
21
2917.16671536871
31
0
0
LINE
8
Základní_vrstva
62
3
10
2562.04935602256
20
2917.16671536871
30
0
11
2562.10335602256
21
2916.98071536871
31
0
0
LINE
8
Základní_vrstva
62
3
10
2562.10335602256
20
2916.98071536871
30
0
11
2562.07935602256
21
2916.78271536871
31
0
0
LINE
8
Základní_vrstva
62
3
10
2562.07935602256
20
2916.78271536871
30
0
11
2562.09735602256
21
2916.57871536871
31
0
0
LINE
8
Základní_vrstva
62
3
10
2562.09735602256
20
2916.57871536871
30
0
11
2562.24735602256
21
2916.42271536871
31
0
0
LINE
8
Základní_vrstva
62
3
10
2562.24735602256
20
2916.42271536871
30
0
11
2562.42135602256
21
2916.30271536871
31
0
0
LINE
8
Základní_vrstva
62
3
10
2562.42135602256
20
2916.30271536871
30
0
11
2562.53535602256
21
2916.14071536871
31
0
0
LINE
8
Základní_vrstva
62
3
10
2562.53535602256
20
2916.14071536871
30
0
11
2562.66735602256
21
2916.00271536871
31
0
0
LINE
8
Základní_vrstva
62
3
10
2562.66735602256
20
2916.00271536871
30
0
11
2562.87135602256
21
2915.98471536871
31
0
0
LINE
8
Základní_vrstva
62
3
10
2562.87135602256
20
2915.98471536871
30
0
11
2563.08135602256
21
2916.00271536871
31
0
0
LINE
8
Základní_vrstva
62
3
10
2563.08135602256
20
2916.00271536871
30
0
11
2563.27335602256
21
2915.94871536871
31
0
0
LINE
8
Základní_vrstva
62
3
10
2563.27335602256
20
2915.94871536871
30
0
11
2563.48335602256
21
2915.93071536871
31
0
0
LINE
8
Základní_vrstva
62
3
10
2563.48335602256
20
2915.93071536871
30
0
11
2563.65135602256
21
2916.04471536871
31
0
0
LINE
8
Základní_vrstva
62
3
10
2563.65135602256
20
2916.04471536871
30
0
11
2563.78935602256
21
2916.18871536871
31
0
0
LINE
8
Základní_vrstva
62
3
10
2563.78935602256
20
2916.18871536871
30
0
11
2563.97535602256
21
2916.27271536871
31
0
0
LINE
8
Základní_vrstva
62
3
10
2563.97535602256
20
2916.27271536871
30
0
11
2564.14935602256
21
2916.39871536871
31
0
0
LINE
8
Základní_vrstva
62
3
10
2564.14935602256
20
2916.39871536871
30
0
11
2564.20935602256
21
2916.60271536871
31
0
0
LINE
8
Základní_vrstva
62
3
10
2564.20935602256
20
2916.60271536871
30
0
11
2564.22135602256
21
2916.80671536871
31
0
0
LINE
8
Základní_vrstva
62
3
10
2564.22135602256
20
2916.80671536871
30
0
11
2564.30535602256
21
2916.99871536871
31
0
0
LINE
8
Základní_vrstva
62
3
10
2564.30535602256
20
2916.99871536871
30
0
11
2564.35935602256
21
2917.17271536871
31
0
0
CIRCLE
8
Základní_vrstva
62
3
10
2563.17735602256
20
2917.07671536871
30
0
40
0.0999999999999091
0
LINE
8
Základní_vrstva
62
3
10
2569.21507477256
20
2918.66099661871
30
0
11
2569.14307477256
21
2918.82899661871
31
0
0
LINE
8
Základní_vrstva
62
3
10
2569.14307477256
20
2918.82899661871
30
0
11
2569.02307477256
21
2919.01499661871
31
0
0
LINE
8
Základní_vrstva
62
3
10
2569.02307477256
20
2919.01499661871
30
0
11
2568.96907477256
21
2919.21899661871
31
0
0
LINE
8
Základní_vrstva
62
3
10
2568.96907477256
20
2919.21899661871
30
0
11
2568.88507477256
21
2919.39899661871
31
0
0
LINE
8
Základní_vrstva
62
3
10
2568.88507477256
20
2919.39899661871
30
0
11
2568.69307477256
21
2919.49499661871
31
0
0
LINE
8
Základní_vrstva
62
3
10
2568.69307477256
20
2919.49499661871
30
0
11
2568.49507477256
21
2919.54899661871
31
0
0
LINE
8
Základní_vrstva
62
3
10
2568.49507477256
20
2919.54899661871
30
0
11
2568.33307477256
21
2919.66299661871
31
0
0
LINE
8
Základní_vrstva
62
3
10
2568.33307477256
20
2919.66299661871
30
0
11
2568.14707477256
21
2919.74699661871
31
0
0
LINE
8
Základní_vrstva
62
3
10
2568.14707477256
20
2919.74699661871
30
0
11
2567.94907477256
21
2919.69299661871
31
0
0
LINE
8
Základní_vrstva
62
3
10
2567.94907477256
20
2919.69299661871
30
0
11
2567.77507477256
21
2919.60899661871
31
0
0
LINE
8
Základní_vrstva
62
3
10
2567.77507477256
20
2919.60899661871
30
0
11
2567.57107477256
21
2919.59099661871
31
0
0
LINE
8
Základní_vrstva
62
3
10
2567.57107477256
20
2919.59099661871
30
0
11
2567.36707477256
21
2919.54299661871
31
0
0
LINE
8
Základní_vrstva
62
3
10
2567.36707477256
20
2919.54299661871
30
0
11
2567.24107477256
21
2919.36899661871
31
0
0
LINE
8
Základní_vrstva
62
3
10
2567.24107477256
20
2919.36899661871
30
0
11
2567.15107477256
21
2919.18299661871
31
0
0
LINE
8
Základní_vrstva
62
3
10
2567.15107477256
20
2919.18299661871
30
0
11
2567.01307477256
21
2919.04499661871
31
0
0
LINE
8
Základní_vrstva
62
3
10
2567.01307477256
20
2919.04499661871
30
0
11
2566.89307477256
21
2918.85899661871
31
0
0
LINE
8
Základní_vrstva
62
3
10
2566.89307477256
20
2918.85899661871
30
0
11
2566.91107477256
21
2918.65499661871
31
0
0
LINE
8
Základní_vrstva
62
3
10
2566.91107477256
20
2918.65499661871
30
0
11
2566.96507477256
21
2918.46899661871
31
0
0
LINE
8
Základní_vrstva
62
3
10
2566.96507477256
20
2918.46899661871
30
0
11
2566.94107477256
21
2918.27099661871
31
0
0
LINE
8
Základní_vrstva
62
3
10
2566.94107477256
20
2918.27099661871
30
0
11
2566.95907477256
21
2918.06699661871
31
0
0
LINE
8
Základní_vrstva
62
3
10
2566.95907477256
20
2918.06699661871
30
0
11
2567.10907477256
21
2917.91099661871
31
0
0
LINE
8
Základní_vrstva
62
3
10
2567.10907477256
20
2917.91099661871
30
0
11
2567.28307477256
21
2917.79099661871
31
0
0
LINE
8
Základní_vrstva
62
3
10
2567.28307477256
20
2917.79099661871
30
0
11
2567.39707477256
21
2917.62899661871
31
0
0
LINE
8
Základní_vrstva
62
3
10
2567.39707477256
20
2917.62899661871
30
0
11
2567.52907477256
21
2917.49099661871
31
0
0
LINE
8
Základní_vrstva
62
3
10
2567.52907477256
20
2917.49099661871
30
0
11
2567.73307477256
21
2917.47299661871
31
0
0
LINE
8
Základní_vrstva
62
3
10
2567.73307477256
20
2917.47299661871
30
0
11
2567.94307477256
21
2917.49099661871
31
0
0
LINE
8
Základní_vrstva
62
3
10
2567.94307477256
20
2917.49099661871
30
0
11
2568.13507477256
21
2917.43699661871
31
0
0
LINE
8
Základní_vrstva
62
3
10
2568.13507477256
20
2917.43699661871
30
0
11
2568.34507477256
21
2917.41899661871
31
0
0
LINE
8
Základní_vrstva
62
3
10
2568.34507477256
20
2917.41899661871
30
0
11
2568.51307477256
21
2917.53299661871
31
0
0
LINE
8
Základní_vrstva
62
3
10
2568.51307477256
20
2917.53299661871
30
0
11
2568.65107477256
21
2917.67699661871
31
0
0
LINE
8
Základní_vrstva
62
3
10
2568.65107477256
20
2917.67699661871
30
0
11
2568.83707477256
21
2917.76099661871
31
0
0
LINE
8
Základní_vrstva
62
3
10
2568.83707477256
20
2917.76099661871
30
0
11
2569.01107477256
21
2917.88699661871
31
0
0
LINE
8
Základní_vrstva
62
3
10
2569.01107477256
20
2917.88699661871
30
0
11
2569.07107477256
21
2918.09099661871
31
0
0
LINE
8
Základní_vrstva
62
3
10
2569.07107477256
20
2918.09099661871
30
0
11
2569.08307477256
21
2918.29499661871
31
0
0
LINE
8
Základní_vrstva
62
3
10
2569.08307477256
20
2918.29499661871
30
0
11
2569.16707477256
21
2918.48699661871
31
0
0
LINE
8
Základní_vrstva
62
3
10
2569.16707477256
20
2918.48699661871
30
0
11
2569.22107477256
21
2918.66099661871
31
0
0
CIRCLE
8
Základní_vrstva
62
3
10
2568.03907477256
20
2918.56499661871
30
0
40
0.0999999999999091
0
LINE
8
Základní_vrstva
62
3
10
2574.07679352256
20
2920.14927786871
30
0
11
2574.00479352256
21
2920.31727786871
31
0
0
LINE
8
Základní_vrstva
62
3
10
2574.00479352256
20
2920.31727786871
30
0
11
2573.88479352256
21
2920.50327786871
31
0
0
LINE
8
Základní_vrstva
62
3
10
2573.88479352256
20
2920.50327786871
30
0
11
2573.83079352256
21
2920.70727786871
31
0
0
LINE
8
Základní_vrstva
62
3
10
2573.83079352256
20
2920.70727786871
30
0
11
2573.74679352256
21
2920.88727786871
31
0
0
LINE
8
Základní_vrstva
62
3
10
2573.74679352256
20
2920.88727786871
30
0
11
2573.55479352256
21
2920.98327786871
31
0
0
LINE
8
Základní_vrstva
62
3
10
2573.55479352256
20
2920.98327786871
30
0
11
2573.35679352256
21
2921.03727786871
31
0
0
LINE
8
Základní_vrstva
62
3
10
2573.35679352256
20
2921.03727786871
30
0
11
2573.19479352256
21
2921.15127786871
31
0
0
LINE
8
Základní_vrstva
62
3
10
2573.19479352256
20
2921.15127786871
30
0
11
2573.00879352256
21
2921.23527786871
31
0
0
LINE
8
Základní_vrstva
62
3
10
2573.00879352256
20
2921.23527786871
30
0
11
2572.81079352256
21
2921.18127786871
31
0
0
LINE
8
Základní_vrstva
62
3
10
2572.81079352256
20
2921.18127786871
30
0
11
2572.63679352256
21
2921.09727786871
31
0
0
LINE
8
Základní_vrstva
62
3
10
2572.63679352256
20
2921.09727786871
30
0
11
2572.43279352256
21
2921.07927786871
31
0
0
LINE
8
Základní_vrstva
62
3
10
2572.43279352256
20
2921.07927786871
30
0
11
2572.22879352256
21
2921.03127786871
31
0
0
LINE
8
Základní_vrstva
62
3
10
2572.22879352256
20
2921.03127786871
30
0
11
2572.10279352256
21
2920.85727786871
31
0
0
LINE
8
Základní_vrstva
62
3
10
2572.10279352256
20
2920.85727786871
30
0
11
2572.01279352256
21
2920.67127786871
31
0
0
LINE
8
Základní_vrstva
62
3
10
2572.01279352256
20
2920.67127786871
30
0
11
2571.87479352256
21
2920.53327786871
31
0
0
LINE
8
Základní_vrstva
62
3
10
2571.87479352256
20
2920.53327786871
30
0
11
2571.75479352256
21
2920.34727786871
31
0
0
LINE
8
Základní_vrstva
62
3
10
2571.75479352256
20
2920.34727786871
30
0
11
2571.77279352256
21
2920.14327786871
31
0
0
LINE
8
Základní_vrstva
62
3
10
2571.77279352256
20
2920.14327786871
30
0
11
2571.82679352256
21
2919.95727786871
31
0
0
LINE
8
Základní_vrstva
62
3
10
2571.82679352256
20
2919.95727786871
30
0
11
2571.80279352256
21
2919.75927786871
31
0
0
LINE
8
Základní_vrstva
62
3
10
2571.80279352256
20
2919.75927786871
30
0
11
2571.82079352256
21
2919.55527786871
31
0
0
LINE
8
Základní_vrstva
62
3
10
2571.82079352256
20
2919.55527786871
30
0
11
2571.97079352256
21
2919.39927786871
31
0
0
LINE
8
Základní_vrstva
62
3
10
2571.97079352256
20
2919.39927786871
30
0
11
2572.14479352256
21
2919.27927786871
31
0
0
LINE
8
Základní_vrstva
62
3
10
2572.14479352256
20
2919.27927786871
30
0
11
2572.25879352256
21
2919.11727786871
31
0
0
LINE
8
Základní_vrstva
62
3
10
2572.25879352256
20
2919.11727786871
30
0
11
2572.39079352256
21
2918.97927786871
31
0
0
LINE
8
Základní_vrstva
62
3
10
2572.39079352256
20
2918.97927786871
30
0
11
2572.59479352256
21
2918.96127786871
31
0
0
LINE
8
Základní_vrstva
62
3
10
2572.59479352256
20
2918.96127786871
30
0
11
2572.80479352256
21
2918.97927786871
31
0
0
LINE
8
Základní_vrstva
62
3
10
2572.80479352256
20
2918.97927786871
30
0
11
2572.99679352256
21
2918.92527786871
31
0
0
LINE
8
Základní_vrstva
62
3
10
2572.99679352256
20
2918.92527786871
30
0
11
2573.20679352256
21
2918.90727786871
31
0
0
LINE
8
Základní_vrstva
62
3
10
2573.20679352256
20
2918.90727786871
30
0
11
2573.37479352256
21
2919.02127786871
31
0
0
LINE
8
Základní_vrstva
62
3
10
2573.37479352256
20
2919.02127786871
30
0
11
2573.51279352256
21
2919.16527786871
31
0
0
LINE
8
Základní_vrstva
62
3
10
2573.51279352256
20
2919.16527786871
30
0
11
2573.69879352256
21
2919.24927786871
31
0
0
LINE
8
Základní_vrstva
62
3
10
2573.69879352256
20
2919.24927786871
30
0
11
2573.87279352256
21
2919.37527786871
31
0
0
LINE
8
Základní_vrstva
62
3
10
2573.87279352256
20
2919.37527786871
30
0
11
2573.93279352256
21
2919.57927786871
31
0
0
LINE
8
Základní_vrstva
62
3
10
2573.93279352256
20
2919.57927786871
30
0
11
2573.94479352256
21
2919.78327786871
31
0
0
LINE
8
Základní_vrstva
62
3
10
2573.94479352256
20
2919.78327786871
30
0
11
2574.02879352256
21
2919.97527786871
31
0
0
LINE
8
Základní_vrstva
62
3
10
2574.02879352256
20
2919.97527786871
30
0
11
2574.08279352256
21
2920.14927786871
31
0
0
CIRCLE
8
Základní_vrstva
62
3
10
2572.90079352256
20
2920.05327786871
30
0
40
0.0999999999999091
0
LINE
8
Základní_vrstva
62
3
10
2578.64085602256
20
2921.43912161871
30
0
11
2578.56885602256
21
2921.60712161871
31
0
0
LINE
8
Základní_vrstva
62
3
10
2578.56885602256
20
2921.60712161871
30
0
11
2578.44885602256
21
2921.79312161871
31
0
0
LINE
8
Základní_vrstva
62
3
10
2578.44885602256
20
2921.79312161871
30
0
11
2578.39485602256
21
2921.99712161871
31
0
0
LINE
8
Základní_vrstva
62
3
10
2578.39485602256
20
2921.99712161871
30
0
11
2578.31085602256
21
2922.17712161871
31
0
0
LINE
8
Základní_vrstva
62
3
10
2578.31085602256
20
2922.17712161871
30
0
11
2578.11885602256
21
2922.27312161871
31
0
0
LINE
8
Základní_vrstva
62
3
10
2578.11885602256
20
2922.27312161871
30
0
11
2577.92085602256
21
2922.32712161871
31
0
0
LINE
8
Základní_vrstva
62
3
10
2577.92085602256
20
2922.32712161871
30
0
11
2577.75885602256
21
2922.44112161871
31
0
0
LINE
8
Základní_vrstva
62
3
10
2577.75885602256
20
2922.44112161871
30
0
11
2577.57285602256
21
2922.52512161871
31
0
0
LINE
8
Základní_vrstva
62
3
10
2577.57285602256
20
2922.52512161871
30
0
11
2577.37485602256
21
2922.47112161871
31
0
0
LINE
8
Základní_vrstva
62
3
10
2577.37485602256
20
2922.47112161871
30
0
11
2577.20085602256
21
2922.38712161871
31
0
0
LINE
8
Základní_vrstva
62
3
10
2577.20085602256
20
2922.38712161871
30
0
11
2576.99685602256
21
2922.36912161871
31
0
0
LINE
8
Základní_vrstva
62
3
10
2576.99685602256
20
2922.36912161871
30
0
11
2576.79285602256
21
2922.32112161871
31
0
0
LINE
8
Základní_vrstva
62
3
10
2576.79285602256
20
2922.32112161871
30
0
11
2576.66685602256
21
2922.14712161871
31
0
0
LINE
8
Základní_vrstva
62
3
10
2576.66685602256
20
2922.14712161871
30
0
11
2576.57685602256
21
2921.96112161871
31
0
0
LINE
8
Základní_vrstva
62
3
10
2576.57685602256
20
2921.96112161871
30
0
11
2576.43885602256
21
2921.82312161871
31
0
0
LINE
8
Základní_vrstva
62
3
10
2576.43885602256
20
2921.82312161871
30
0
11
2576.31885602256
21
2921.63712161871
31
0
0
LINE
8
Základní_vrstva
62
3
10
2576.31885602256
20
2921.63712161871
30
0
11
2576.33685602256
21
2921.43312161871
31
0
0
LINE
8
Základní_vrstva
62
3
10
2576.33685602256
20
2921.43312161871
30
0
11
2576.39085602256
21
2921.24712161871
31
0
0
LINE
8
Základní_vrstva
62
3
10
2576.39085602256
20
2921.24712161871
30
0
11
2576.36685602256
21
2921.04912161871
31
0
0
LINE
8
Základní_vrstva
62
3
10
2576.36685602256
20
2921.04912161871
30
0
11
2576.38485602256
21
2920.84512161871
31
0
0
LINE
8
Základní_vrstva
62
3
10
2576.38485602256
20
2920.84512161871
30
0
11
2576.53485602256
21
2920.68912161871
31
0
0
LINE
8
Základní_vrstva
62
3
10
2576.53485602256
20
2920.68912161871
30
0
11
2576.70885602256
21
2920.56912161871
31
0
0
LINE
8
Základní_vrstva
62
3
10
2576.70885602256
20
2920.56912161871
30
0
11
2576.82285602256
21
2920.40712161871
31
0
0
LINE
8
Základní_vrstva
62
3
10
2576.82285602256
20
2920.40712161871
30
0
11
2576.95485602256
21
2920.26912161871
31
0
0
LINE
8
Základní_vrstva
62
3
10
2576.95485602256
20
2920.26912161871
30
0
11
2577.15885602256
21
2920.25112161871
31
0
0
LINE
8
Základní_vrstva
62
3
10
2577.15885602256
20
2920.25112161871
30
0
11
2577.36885602256
21
2920.26912161871
31
0
0
LINE
8
Základní_vrstva
62
3
10
2577.36885602256
20
2920.26912161871
30
0
11
2577.56085602256
21
2920.21512161871
31
0
0
LINE
8
Základní_vrstva
62
3
10
2577.56085602256
20
2920.21512161871
30
0
11
2577.77085602256
21
2920.19712161871
31
0
0
LINE
8
Základní_vrstva
62
3
10
2577.77085602256
20
2920.19712161871
30
0
11
2577.93885602256
21
2920.31112161871
31
0
0
LINE
8
Základní_vrstva
62
3
10
2577.93885602256
20
2920.31112161871
30
0
11
2578.07685602256
21
2920.45512161871
31
0
0
LINE
8
Základní_vrstva
62
3
10
2578.07685602256
20
2920.45512161871
30
0
11
2578.26285602256
21
2920.53912161871
31
0
0
LINE
8
Základní_vrstva
62
3
10
2578.26285602256
20
2920.53912161871
30
0
11
2578.43685602256
21
2920.66512161871
31
0
0
LINE
8
Základní_vrstva
62
3
10
2578.43685602256
20
2920.66512161871
30
0
11
2578.49685602256
21
2920.86912161871
31
0
0
LINE
8
Základní_vrstva
62
3
10
2578.49685602256
20
2920.86912161871
30
0
11
2578.50885602256
21
2921.07312161871
31
0
0
LINE
8
Základní_vrstva
62
3
10
2578.50885602256
20
2921.07312161871
30
0
11
2578.59285602256
21
2921.26512161871
31
0
0
LINE
8
Základní_vrstva
62
3
10
2578.59285602256
20
2921.26512161871
30
0
11
2578.64685602256
21
2921.43912161871
31
0
0
CIRCLE
8
Základní_vrstva
62
3
10
2577.46485602256
20
2921.34312161871
30
0
40
0.0999999999999091
0
LINE
8
Základní_vrstva
62
3
10
2583.30413727256
20
2923.02662161871
30
0
11
2583.23213727256
21
2923.19462161871
31
0
0
LINE
8
Základní_vrstva
62
3
10
2583.23213727256
20
2923.19462161871
30
0
11
2583.11213727256
21
2923.38062161871
31
0
0
LINE
8
Základní_vrstva
62
3
10
2583.11213727256
20
2923.38062161871
30
0
11
2583.05813727256
21
2923.58462161871
31
0
0
LINE
8
Základní_vrstva
62
3
10
2583.05813727256
20
2923.58462161871
30
0
11
2582.97413727256
21
2923.76462161871
31
0
0
LINE
8
Základní_vrstva
62
3
10
2582.97413727256
20
2923.76462161871
30
0
11
2582.78213727256
21
2923.86062161871
31
0
0
LINE
8
Základní_vrstva
62
3
10
2582.78213727256
20
2923.86062161871
30
0
11
2582.58413727256
21
2923.91462161871
31
0
0
LINE
8
Základní_vrstva
62
3
10
2582.58413727256
20
2923.91462161871
30
0
11
2582.42213727256
21
2924.02862161871
31
0
0
LINE
8
Základní_vrstva
62
3
10
2582.42213727256
20
2924.02862161871
30
0
11
2582.23613727256
21
2924.11262161871
31
0
0
LINE
8
Základní_vrstva
62
3
10
2582.23613727256
20
2924.11262161871
30
0
11
2582.03813727256
21
2924.05862161871
31
0
0
LINE
8
Základní_vrstva
62
3
10
2582.03813727256
20
2924.05862161871
30
0
11
2581.86413727256
21
2923.97462161871
31
0
0
LINE
8
Základní_vrstva
62
3
10
2581.86413727256
20
2923.97462161871
30
0
11
2581.66013727256
21
2923.95662161871
31
0
0
LINE
8
Základní_vrstva
62
3
10
2581.66013727256
20
2923.95662161871
30
0
11
2581.45613727256
21
2923.90862161871
31
0
0
LINE
8
Základní_vrstva
62
3
10
2581.45613727256
20
2923.90862161871
30
0
11
2581.33013727256
21
2923.73462161871
31
0
0
LINE
8
Základní_vrstva
62
3
10
2581.33013727256
20
2923.73462161871
30
0
11
2581.24013727256
21
2923.54862161871
31
0
0
LINE
8
Základní_vrstva
62
3
10
2581.24013727256
20
2923.54862161871
30
0
11
2581.10213727256
21
2923.41062161871
31
0
0
LINE
8
Základní_vrstva
62
3
10
2581.10213727256
20
2923.41062161871
30
0
11
2580.98213727256
21
2923.22462161871
31
0
0
LINE
8
Základní_vrstva
62
3
10
2580.98213727256
20
2923.22462161871
30
0
11
2581.00013727256
21
2923.02062161871
31
0
0
LINE
8
Základní_vrstva
62
3
10
2581.00013727256
20
2923.02062161871
30
0
11
2581.05413727256
21
2922.83462161871
31
0
0
LINE
8
Základní_vrstva
62
3
10
2581.05413727256
20
2922.83462161871
30
0
11
2581.03013727256
21
2922.63662161871
31
0
0
LINE
8
Základní_vrstva
62
3
10
2581.03013727256
20
2922.63662161871
30
0
11
2581.04813727256
21
2922.43262161871
31
0
0
LINE
8
Základní_vrstva
62
3
10
2581.04813727256
20
2922.43262161871
30
0
11
2581.19813727256
21
2922.27662161871
31
0
0
LINE
8
Základní_vrstva
62
3
10
2581.19813727256
20
2922.27662161871
30
0
11
2581.37213727256
21
2922.15662161871
31
0
0
LINE
8
Základní_vrstva
62
3
10
2581.37213727256
20
2922.15662161871
30
0
11
2581.48613727256
21
2921.99462161871
31
0
0
LINE
8
Základní_vrstva
62
3
10
2581.48613727256
20
2921.99462161871
30
0
11
2581.61813727256
21
2921.85662161871
31
0
0
LINE
8
Základní_vrstva
62
3
10
2581.61813727256
20
2921.85662161871
30
0
11
2581.82213727256
21
2921.83862161871
31
0
0
LINE
8
Základní_vrstva
62
3
10
2581.82213727256
20
2921.83862161871
30
0
11
2582.03213727256
21
2921.85662161871
31
0
0
LINE
8
Základní_vrstva
62
3
10
2582.03213727256
20
2921.85662161871
30
0
11
2582.22413727256
21
2921.80262161871
31
0
0
LINE
8
Základní_vrstva
62
3
10
2582.22413727256
20
2921.80262161871
30
0
11
2582.43413727256
21
2921.78462161871
31
0
0
LINE
8
Základní_vrstva
62
3
10
2582.43413727256
20
2921.78462161871
30
0
11
2582.60213727256
21
2921.89862161871
31
0
0
LINE
8
Základní_vrstva
62
3
10
2582.60213727256
20
2921.89862161871
30
0
11
2582.74013727256
21
2922.04262161871
31
0
0
LINE
8
Základní_vrstva
62
3
10
2582.74013727256
20
2922.04262161871
30
0
11
2582.92613727256
21
2922.12662161871
31
0
0
LINE
8
Základní_vrstva
62
3
10
2582.92613727256
20
2922.12662161871
30
0
11
2583.10013727256
21
2922.25262161871
31
0
0
LINE
8
Základní_vrstva
62
3
10
2583.10013727256
20
2922.25262161871
30
0
11
2583.16013727256
21
2922.45662161871
31
0
0
LINE
8
Základní_vrstva
62
3
10
2583.16013727256
20
2922.45662161871
30
0
11
2583.17213727256
21
2922.66062161871
31
0
0
LINE
8
Základní_vrstva
62
3
10
2583.17213727256
20
2922.66062161871
30
0
11
2583.25613727256
21
2922.85262161871
31
0
0
LINE
8
Základní_vrstva
62
3
10
2583.25613727256
20
2922.85262161871
30
0
11
2583.31013727256
21
2923.02662161871
31
0
0
CIRCLE
8
Základní_vrstva
62
3
10
2582.12813727256
20
2922.93062161871
30
0
40
0.0999999999999091
0
LINE
8
Základní_vrstva
62
3
10
2588.26507477256
20
2924.51490286871
30
0
11
2588.19307477256
21
2924.68290286871
31
0
0
LINE
8
Základní_vrstva
62
3
10
2588.19307477256
20
2924.68290286871
30
0
11
2588.07307477256
21
2924.86890286871
31
0
0
LINE
8
Základní_vrstva
62
3
10
2588.07307477256
20
2924.86890286871
30
0
11
2588.01907477256
21
2925.07290286871
31
0
0
LINE
8
Základní_vrstva
62
3
10
2588.01907477256
20
2925.07290286871
30
0
11
2587.93507477256
21
2925.25290286871
31
0
0
LINE
8
Základní_vrstva
62
3
10
2587.93507477256
20
2925.25290286871
30
0
11
2587.74307477256
21
2925.34890286871
31
0
0
LINE
8
Základní_vrstva
62
3
10
2587.74307477256
20
2925.34890286871
30
0
11
2587.54507477256
21
2925.40290286871
31
0
0
LINE
8
Základní_vrstva
62
3
10
2587.54507477256
20
2925.40290286871
30
0
11
2587.38307477256
21
2925.51690286871
31
0
0
LINE
8
Základní_vrstva
62
3
10
2587.38307477256
20
2925.51690286871
30
0
11
2587.19707477256
21
2925.60090286871
31
0
0
LINE
8
Základní_vrstva
62
3
10
2587.19707477256
20
2925.60090286871
30
0
11
2586.99907477256
21
2925.54690286871
31
0
0
LINE
8
Základní_vrstva
62
3
10
2586.99907477256
20
2925.54690286871
30
0
11
2586.82507477256
21
2925.46290286871
31
0
0
LINE
8
Základní_vrstva
62
3
10
2586.82507477256
20
2925.46290286871
30
0
11
2586.62107477256
21
2925.44490286871
31
0
0
LINE
8
Základní_vrstva
62
3
10
2586.62107477256
20
2925.44490286871
30
0
11
2586.41707477256
21
2925.39690286871
31
0
0
LINE
8
Základní_vrstva
62
3
10
2586.41707477256
20
2925.39690286871
30
0
11
2586.29107477256
21
2925.22290286871
31
0
0
LINE
8
Základní_vrstva
62
3
10
2586.29107477256
20
2925.22290286871
30
0
11
2586.20107477256
21
2925.03690286871
31
0
0
LINE
8
Základní_vrstva
62
3
10
2586.20107477256
20
2925.03690286871
30
0
11
2586.06307477256
21
2924.89890286871
31
0
0
LINE
8
Základní_vrstva
62
3
10
2586.06307477256
20
2924.89890286871
30
0
11
2585.94307477256
21
2924.71290286871
31
0
0
LINE
8
Základní_vrstva
62
3
10
2585.94307477256
20
2924.71290286871
30
0
11
2585.96107477256
21
2924.50890286871
31
0
0
LINE
8
Základní_vrstva
62
3
10
2585.96107477256
20
2924.50890286871
30
0
11
2586.01507477256
21
2924.32290286871
31
0
0
LINE
8
Základní_vrstva
62
3
10
2586.01507477256
20
2924.32290286871
30
0
11
2585.99107477256
21
2924.12490286871
31
0
0
LINE
8
Základní_vrstva
62
3
10
2585.99107477256
20
2924.12490286871
30
0
11
2586.00907477256
21
2923.92090286871
31
0
0
LINE
8
Základní_vrstva
62
3
10
2586.00907477256
20
2923.92090286871
30
0
11
2586.15907477256
21
2923.76490286871
31
0
0
LINE
8
Základní_vrstva
62
3
10
2586.15907477256
20
2923.76490286871
30
0
11
2586.33307477256
21
2923.64490286871
31
0
0
LINE
8
Základní_vrstva
62
3
10
2586.33307477256
20
2923.64490286871
30
0
11
2586.44707477256
21
2923.48290286871
31
0
0
LINE
8
Základní_vrstva
62
3
10
2586.44707477256
20
2923.48290286871
30
0
11
2586.57907477256
21
2923.34490286871
31
0
0
LINE
8
Základní_vrstva
62
3
10
2586.57907477256
20
2923.34490286871
30
0
11
2586.78307477256
21
2923.32690286871
31
0
0
LINE
8
Základní_vrstva
62
3
10
2586.78307477256
20
2923.32690286871
30
0
11
2586.99307477256
21
2923.34490286871
31
0
0
LINE
8
Základní_vrstva
62
3
10
2586.99307477256
20
2923.34490286871
30
0
11
2587.18507477256
21
2923.29090286871
31
0
0
LINE
8
Základní_vrstva
62
3
10
2587.18507477256
20
2923.29090286871
30
0
11
2587.39507477256
21
2923.27290286871
31
0
0
LINE
8
Základní_vrstva
62
3
10
2587.39507477256
20
2923.27290286871
30
0
11
2587.56307477256
21
2923.38690286871
31
0
0
LINE
8
Základní_vrstva
62
3
10
2587.56307477256
20
2923.38690286871
30
0
11
2587.70107477256
21
2923.53090286871
31
0
0
LINE
8
Základní_vrstva
62
3
10
2587.70107477256
20
2923.53090286871
30
0
11
2587.88707477256
21
2923.61490286871
31
0
0
LINE
8
Základní_vrstva
62
3
10
2587.88707477256
20
2923.61490286871
30
0
11
2588.06107477256
21
2923.74090286871
31
0
0
LINE
8
Základní_vrstva
62
3
10
2588.06107477256
20
2923.74090286871
30
0
11
2588.12107477256
21
2923.94490286871
31
0
0
LINE
8
Základní_vrstva
62
3
10
2588.12107477256
20
2923.94490286871
30
0
11
2588.13307477256
21
2924.14890286871
31
0
0
LINE
8
Základní_vrstva
62
3
10
2588.13307477256
20
2924.14890286871
30
0
11
2588.21707477256
21
2924.34090286871
31
0
0
LINE
8
Základní_vrstva
62
3
10
2588.21707477256
20
2924.34090286871
30
0
11
2588.27107477256
21
2924.51490286871
31
0
0
CIRCLE
8
Základní_vrstva
62
3
10
2587.08907477256
20
2924.41890286871
30
0
40
0.0999999999999091
0
LINE
8
Základní_vrstva
62
3
10
2593.42444977256
20
2926.10240286871
30
0
11
2593.35244977256
21
2926.27040286871
31
0
0
LINE
8
Základní_vrstva
62
3
10
2593.35244977256
20
2926.27040286871
30
0
11
2593.23244977256
21
2926.45640286871
31
0
0
LINE
8
Základní_vrstva
62
3
10
2593.23244977256
20
2926.45640286871
30
0
11
2593.17844977256
21
2926.66040286871
31
0
0
LINE
8
Základní_vrstva
62
3
10
2593.17844977256
20
2926.66040286871
30
0
11
2593.09444977256
21
2926.84040286871
31
0
0
LINE
8
Základní_vrstva
62
3
10
2593.09444977256
20
2926.84040286871
30
0
11
2592.90244977256
21
2926.93640286871
31
0
0
LINE
8
Základní_vrstva
62
3
10
2592.90244977256
20
2926.93640286871
30
0
11
2592.70444977256
21
2926.99040286871
31
0
0
LINE
8
Základní_vrstva
62
3
10
2592.70444977256
20
2926.99040286871
30
0
11
2592.54244977256
21
2927.10440286871
31
0
0
LINE
8
Základní_vrstva
62
3
10
2592.54244977256
20
2927.10440286871
30
0
11
2592.35644977256
21
2927.18840286871
31
0
0
LINE
8
Základní_vrstva
62
3
10
2592.35644977256
20
2927.18840286871
30
0
11
2592.15844977256
21
2927.13440286871
31
0
0
LINE
8
Základní_vrstva
62
3
10
2592.15844977256
20
2927.13440286871
30
0
11
2591.98444977256
21
2927.05040286871
31
0
0
LINE
8
Základní_vrstva
62
3
10
2591.98444977256
20
2927.05040286871
30
0
11
2591.78044977256
21
2927.03240286871
31
0
0
LINE
8
Základní_vrstva
62
3
10
2591.78044977256
20
2927.03240286871
30
0
11
2591.57644977256
21
2926.98440286871
31
0
0
LINE
8
Základní_vrstva
62
3
10
2591.57644977256
20
2926.98440286871
30
0
11
2591.45044977256
21
2926.81040286871
31
0
0
LINE
8
Základní_vrstva
62
3
10
2591.45044977256
20
2926.81040286871
30
0
11
2591.36044977256
21
2926.62440286871
31
0
0
LINE
8
Základní_vrstva
62
3
10
2591.36044977256
20
2926.62440286871
30
0
11
2591.22244977256
21
2926.48640286871
31
0
0
LINE
8
Základní_vrstva
62
3
10
2591.22244977256
20
2926.48640286871
30
0
11
2591.10244977256
21
2926.30040286871
31
0
0
LINE
8
Základní_vrstva
62
3
10
2591.10244977256
20
2926.30040286871
30
0
11
2591.12044977256
21
2926.09640286871
31
0
0
LINE
8
Základní_vrstva
62
3
10
2591.12044977256
20
2926.09640286871
30
0
11
2591.17444977256
21
2925.91040286871
31
0
0
LINE
8
Základní_vrstva
62
3
10
2591.17444977256
20
2925.91040286871
30
0
11
2591.15044977256
21
2925.71240286871
31
0
0
LINE
8
Základní_vrstva
62
3
10
2591.15044977256
20
2925.71240286871
30
0
11
2591.16844977256
21
2925.50840286871
31
0
0
LINE
8
Základní_vrstva
62
3
10
2591.16844977256
20
2925.50840286871
30
0
11
2591.31844977256
21
2925.35240286871
31
0
0
LINE
8
Základní_vrstva
62
3
10
2591.31844977256
20
2925.35240286871
30
0
11
2591.49244977256
21
2925.23240286871
31
0
0
LINE
8
Základní_vrstva
62
3
10
2591.49244977256
20
2925.23240286871
30
0
11
2591.60644977256
21
2925.07040286871
31
0
0
LINE
8
Základní_vrstva
62
3
10
2591.60644977256
20
2925.07040286871
30
0
11
2591.73844977256
21
2924.93240286871
31
0
0
LINE
8
Základní_vrstva
62
3
10
2591.73844977256
20
2924.93240286871
30
0
11
2591.94244977256
21
2924.91440286871
31
0
0
LINE
8
Základní_vrstva
62
3
10
2591.94244977256
20
2924.91440286871
30
0
11
2592.15244977256
21
2924.93240286871
31
0
0
LINE
8
Základní_vrstva
62
3
10
2592.15244977256
20
2924.93240286871
30
0
11
2592.34444977256
21
2924.87840286871
31
0
0
LINE
8
Základní_vrstva
62
3
10
2592.34444977256
20
2924.87840286871
30
0
11
2592.55444977256
21
2924.86040286871
31
0
0
LINE
8
Základní_vrstva
62
3
10
2592.55444977256
20
2924.86040286871
30
0
11
2592.72244977256
21
2924.97440286871
31
0
0
LINE
8
Základní_vrstva
62
3
10
2592.72244977256
20
2924.97440286871
30
0
11
2592.86044977256
21
2925.11840286871
31
0
0
LINE
8
Základní_vrstva
62
3
10
2592.86044977256
20
2925.11840286871
30
0
11
2593.04644977256
21
2925.20240286871
31
0
0
LINE
8
Základní_vrstva
62
3
10
2593.04644977256
20
2925.20240286871
30
0
11
2593.22044977256
21
2925.32840286871
31
0
0
LINE
8
Základní_vrstva
62
3
10
2593.22044977256
20
2925.32840286871
30
0
11
2593.28044977256
21
2925.53240286871
31
0
0
LINE
8
Základní_vrstva
62
3
10
2593.28044977256
20
2925.53240286871
30
0
11
2593.29244977256
21
2925.73640286871
31
0
0
LINE
8
Základní_vrstva
62
3
10
2593.29244977256
20
2925.73640286871
30
0
11
2593.37644977256
21
2925.92840286871
31
0
0
LINE
8
Základní_vrstva
62
3
10
2593.37644977256
20
2925.92840286871
30
0
11
2593.43044977256
21
2926.10240286871
31
0
0
CIRCLE
8
Základní_vrstva
62
3
10
2592.24844977256
20
2926.00640286871
30
0
40
0.0999999999999091
0
LINE
8
Základní_vrstva
62
3
10
2598.78226227256
20
2927.59068411871
30
0
11
2598.71026227256
21
2927.75868411871
31
0
0
LINE
8
Základní_vrstva
62
3
10
2598.71026227256
20
2927.75868411871
30
0
11
2598.59026227256
21
2927.94468411871
31
0
0
LINE
8
Základní_vrstva
62
3
10
2598.59026227256
20
2927.94468411871
30
0
11
2598.53626227256
21
2928.14868411871
31
0
0
LINE
8
Základní_vrstva
62
3
10
2598.53626227256
20
2928.14868411871
30
0
11
2598.45226227256
21
2928.32868411871
31
0
0
LINE
8
Základní_vrstva
62
3
10
2598.45226227256
20
2928.32868411871
30
0
11
2598.26026227256
21
2928.42468411871
31
0
0
LINE
8
Základní_vrstva
62
3
10
2598.26026227256
20
2928.42468411871
30
0
11
2598.06226227256
21
2928.47868411871
31
0
0
LINE
8
Základní_vrstva
62
3
10
2598.06226227256
20
2928.47868411871
30
0
11
2597.90026227256
21
2928.59268411871
31
0
0
LINE
8
Základní_vrstva
62
3
10
2597.90026227256
20
2928.59268411871
30
0
11
2597.71426227256
21
2928.67668411871
31
0
0
LINE
8
Základní_vrstva
62
3
10
2597.71426227256
20
2928.67668411871
30
0
11
2597.51626227256
21
2928.62268411871
31
0
0
LINE
8
Základní_vrstva
62
3
10
2597.51626227256
20
2928.62268411871
30
0
11
2597.34226227256
21
2928.53868411871
31
0
0
LINE
8
Základní_vrstva
62
3
10
2597.34226227256
20
2928.53868411871
30
0
11
2597.13826227256
21
2928.52068411871
31
0
0
LINE
8
Základní_vrstva
62
3
10
2597.13826227256
20
2928.52068411871
30
0
11
2596.93426227256
21
2928.47268411871
31
0
0
LINE
8
Základní_vrstva
62
3
10
2596.93426227256
20
2928.47268411871
30
0
11
2596.80826227256
21
2928.29868411871
31
0
0
LINE
8
Základní_vrstva
62
3
10
2596.80826227256
20
2928.29868411871
30
0
11
2596.71826227256
21
2928.11268411871
31
0
0
LINE
8
Základní_vrstva
62
3
10
2596.71826227256
20
2928.11268411871
30
0
11
2596.58026227256
21
2927.97468411871
31
0
0
LINE
8
Základní_vrstva
62
3
10
2596.58026227256
20
2927.97468411871
30
0
11
2596.46026227256
21
2927.78868411871
31
0
0
LINE
8
Základní_vrstva
62
3
10
2596.46026227256
20
2927.78868411871
30
0
11
2596.47826227256
21
2927.58468411871
31
0
0
LINE
8
Základní_vrstva
62
3
10
2596.47826227256
20
2927.58468411871
30
0
11
2596.53226227256
21
2927.39868411871
31
0
0
LINE
8
Základní_vrstva
62
3
10
2596.53226227256
20
2927.39868411871
30
0
11
2596.50826227256
21
2927.20068411871
31
0
0
LINE
8
Základní_vrstva
62
3
10
2596.50826227256
20
2927.20068411871
30
0
11
2596.52626227256
21
2926.99668411871
31
0
0
LINE
8
Základní_vrstva
62
3
10
2596.52626227256
20
2926.99668411871
30
0
11
2596.67626227256
21
2926.84068411871
31
0
0
LINE
8
Základní_vrstva
62
3
10
2596.67626227256
20
2926.84068411871
30
0
11
2596.85026227256
21
2926.72068411871
31
0
0
LINE
8
Základní_vrstva
62
3
10
2596.85026227256
20
2926.72068411871
30
0
11
2596.96426227256
21
2926.55868411871
31
0
0
LINE
8
Základní_vrstva
62
3
10
2596.96426227256
20
2926.55868411871
30
0
11
2597.09626227256
21
2926.42068411871
31
0
0
LINE
8
Základní_vrstva
62
3
10
2597.09626227256
20
2926.42068411871
30
0
11
2597.30026227256
21
2926.40268411871
31
0
0
LINE
8
Základní_vrstva
62
3
10
2597.30026227256
20
2926.40268411871
30
0
11
2597.51026227256
21
2926.42068411871
31
0
0
LINE
8
Základní_vrstva
62
3
10
2597.51026227256
20
2926.42068411871
30
0
11
2597.70226227256
21
2926.36668411871
31
0
0
LINE
8
Základní_vrstva
62
3
10
2597.70226227256
20
2926.36668411871
30
0
11
2597.91226227256
21
2926.34868411871
31
0
0
LINE
8
Základní_vrstva
62
3
10
2597.91226227256
20
2926.34868411871
30
0
11
2598.08026227256
21
2926.46268411871
31
0
0
LINE
8
Základní_vrstva
62
3
10
2598.08026227256
20
2926.46268411871
30
0
11
2598.21826227256
21
2926.60668411871
31
0
0
LINE
8
Základní_vrstva
62
3
10
2598.21826227256
20
2926.60668411871
30
0
11
2598.40426227256
21
2926.69068411871
31
0
0
LINE
8
Základní_vrstva
62
3
10
2598.40426227256
20
2926.69068411871
30
0
11
2598.57826227256
21
2926.81668411871
31
0
0
LINE
8
Základní_vrstva
62
3
10
2598.57826227256
20
2926.81668411871
30
0
11
2598.63826227256
21
2927.02068411871
31
0
0
LINE
8
Základní_vrstva
62
3
10
2598.63826227256
20
2927.02068411871
30
0
11
2598.65026227256
21
2927.22468411871
31
0
0
LINE
8
Základní_vrstva
62
3
10
2598.65026227256
20
2927.22468411871
30
0
11
2598.73426227256
21
2927.41668411871
31
0
0
LINE
8
Základní_vrstva
62
3
10
2598.73426227256
20
2927.41668411871
30
0
11
2598.78826227256
21
2927.59068411871
31
0
0
CIRCLE
8
Základní_vrstva
62
3
10
2597.60626227256
20
2927.49468411871
30
0
40
0.0999999999999091
0
LINE
8
Základní_vrstva
62
3
10
2604.14007477256
20
2929.27740286871
30
0
11
2604.06807477256
21
2929.44540286871
31
0
0
LINE
8
Základní_vrstva
62
3
10
2604.06807477256
20
2929.44540286871
30
0
11
2603.94807477256
21
2929.63140286871
31
0
0
LINE
8
Základní_vrstva
62
3
10
2603.94807477256
20
2929.63140286871
30
0
11
2603.89407477256
21
2929.83540286871
31
0
0
LINE
8
Základní_vrstva
62
3
10
2603.89407477256
20
2929.83540286871
30
0
11
2603.81007477256
21
2930.01540286871
31
0
0
LINE
8
Základní_vrstva
62
3
10
2603.81007477256
20
2930.01540286871
30
0
11
2603.61807477256
21
2930.11140286871
31
0
0
LINE
8
Základní_vrstva
62
3
10
2603.61807477256
20
2930.11140286871
30
0
11
2603.42007477256
21
2930.16540286871
31
0
0
LINE
8
Základní_vrstva
62
3
10
2603.42007477256
20
2930.16540286871
30
0
11
2603.25807477256
21
2930.27940286871
31
0
0
LINE
8
Základní_vrstva
62
3
10
2603.25807477256
20
2930.27940286871
30
0
11
2603.07207477256
21
2930.36340286871
31
0
0
LINE
8
Základní_vrstva
62
3
10
2603.07207477256
20
2930.36340286871
30
0
11
2602.87407477256
21
2930.30940286871
31
0
0
LINE
8
Základní_vrstva
62
3
10
2602.87407477256
20
2930.30940286871
30
0
11
2602.70007477256
21
2930.22540286871
31
0
0
LINE
8
Základní_vrstva
62
3
10
2602.70007477256
20
2930.22540286871
30
0
11
2602.49607477256
21
2930.20740286871
31
0
0
LINE
8
Základní_vrstva
62
3
10
2602.49607477256
20
2930.20740286871
30
0
11
2602.29207477256
21
2930.15940286871
31
0
0
LINE
8
Základní_vrstva
62
3
10
2602.29207477256
20
2930.15940286871
30
0
11
2602.16607477256
21
2929.98540286871
31
0
0
LINE
8
Základní_vrstva
62
3
10
2602.16607477256
20
2929.98540286871
30
0
11
2602.07607477256
21
2929.79940286871
31
0
0
LINE
8
Základní_vrstva
62
3
10
2602.07607477256
20
2929.79940286871
30
0
11
2601.93807477256
21
2929.66140286871
31
0
0
LINE
8
Základní_vrstva
62
3
10
2601.93807477256
20
2929.66140286871
30
0
11
2601.81807477256
21
2929.47540286871
31
0
0
LINE
8
Základní_vrstva
62
3
10
2601.81807477256
20
2929.47540286871
30
0
11
2601.83607477256
21
2929.27140286871
31
0
0
LINE
8
Základní_vrstva
62
3
10
2601.83607477256
20
2929.27140286871
30
0
11
2601.89007477256
21
2929.08540286871
31
0
0
LINE
8
Základní_vrstva
62
3
10
2601.89007477256
20
2929.08540286871
30
0
11
2601.86607477256
21
2928.88740286871
31
0
0
LINE
8
Základní_vrstva
62
3
10
2601.86607477256
20
2928.88740286871
30
0
11
2601.88407477256
21
2928.68340286871
31
0
0
LINE
8
Základní_vrstva
62
3
10
2601.88407477256
20
2928.68340286871
30
0
11
2602.03407477256
21
2928.52740286871
31
0
0
LINE
8
Základní_vrstva
62
3
10
2602.03407477256
20
2928.52740286871
30
0
11
2602.20807477256
21
2928.40740286871
31
0
0
LINE
8
Základní_vrstva
62
3
10
2602.20807477256
20
2928.40740286871
30
0
11
2602.32207477256
21
2928.24540286871
31
0
0
LINE
8
Základní_vrstva
62
3
10
2602.32207477256
20
2928.24540286871
30
0
11
2602.45407477256
21
2928.10740286871
31
0
0
LINE
8
Základní_vrstva
62
3
10
2602.45407477256
20
2928.10740286871
30
0
11
2602.65807477256
21
2928.08940286871
31
0
0
LINE
8
Základní_vrstva
62
3
10
2602.65807477256
20
2928.08940286871
30
0
11
2602.86807477256
21
2928.10740286871
31
0
0
LINE
8
Základní_vrstva
62
3
10
2602.86807477256
20
2928.10740286871
30
0
11
2603.06007477256
21
2928.05340286871
31
0
0
LINE
8
Základní_vrstva
62
3
10
2603.06007477256
20
2928.05340286871
30
0
11
2603.27007477256
21
2928.03540286871
31
0
0
LINE
8
Základní_vrstva
62
3
10
2603.27007477256
20
2928.03540286871
30
0
11
2603.43807477256
21
2928.14940286871
31
0
0
LINE
8
Základní_vrstva
62
3
10
2603.43807477256
20
2928.14940286871
30
0
11
2603.57607477256
21
2928.29340286871
31
0
0
LINE
8
Základní_vrstva
62
3
10
2603.57607477256
20
2928.29340286871
30
0
11
2603.76207477256
21
2928.37740286871
31
0
0
LINE
8
Základní_vrstva
62
3
10
2603.76207477256
20
2928.37740286871
30
0
11
2603.93607477256
21
2928.50340286871
31
0
0
LINE
8
Základní_vrstva
62
3
10
2603.93607477256
20
2928.50340286871
30
0
11
2603.99607477256
21
2928.70740286871
31
0
0
LINE
8
Základní_vrstva
62
3
10
2603.99607477256
20
2928.70740286871
30
0
11
2604.00807477256
21
2928.91140286871
31
0
0
LINE
8
Základní_vrstva
62
3
10
2604.00807477256
20
2928.91140286871
30
0
11
2604.09207477256
21
2929.10340286871
31
0
0
LINE
8
Základní_vrstva
62
3
10
2604.09207477256
20
2929.10340286871
30
0
11
2604.14607477256
21
2929.27740286871
31
0
0
CIRCLE
8
Základní_vrstva
62
3
10
2602.96407477256
20
2929.18140286871
30
0
40
0.0999999999999091
0
LINE
8
Základní_vrstva
62
3
10
2609.29944977256
20
2930.66646536871
30
0
11
2609.22744977256
21
2930.83446536871
31
0
0
LINE
8
Základní_vrstva
62
3
10
2609.22744977256
20
2930.83446536871
30
0
11
2609.10744977256
21
2931.02046536871
31
0
0
LINE
8
Základní_vrstva
62
3
10
2609.10744977256
20
2931.02046536871
30
0
11
2609.05344977256
21
2931.22446536871
31
0
0
LINE
8
Základní_vrstva
62
3
10
2609.05344977256
20
2931.22446536871
30
0
11
2608.96944977256
21
2931.40446536871
31
0
0
LINE
8
Základní_vrstva
62
3
10
2608.96944977256
20
2931.40446536871
30
0
11
2608.77744977256
21
2931.50046536871
31
0
0
LINE
8
Základní_vrstva
62
3
10
2608.77744977256
20
2931.50046536871
30
0
11
2608.57944977256
21
2931.55446536871
31
0
0
LINE
8
Základní_vrstva
62
3
10
2608.57944977256
20
2931.55446536871
30
0
11
2608.41744977256
21
2931.66846536871
31
0
0
LINE
8
Základní_vrstva
62
3
10
2608.41744977256
20
2931.66846536871
30
0
11
2608.23144977256
21
2931.75246536871
31
0
0
LINE
8
Základní_vrstva
62
3
10
2608.23144977256
20
2931.75246536871
30
0
11
2608.03344977256
21
2931.69846536871
31
0
0
LINE
8
Základní_vrstva
62
3
10
2608.03344977256
20
2931.69846536871
30
0
11
2607.85944977256
21
2931.61446536871
31
0
0
LINE
8
Základní_vrstva
62
3
10
2607.85944977256
20
2931.61446536871
30
0
11
2607.65544977256
21
2931.59646536871
31
0
0
LINE
8
Základní_vrstva
62
3
10
2607.65544977256
20
2931.59646536871
30
0
11
2607.45144977256
21
2931.54846536871
31
0
0
LINE
8
Základní_vrstva
62
3
10
2607.45144977256
20
2931.54846536871
30
0
11
2607.32544977256
21
2931.37446536871
31
0
0
LINE
8
Základní_vrstva
62
3
10
2607.32544977256
20
2931.37446536871
30
0
11
2607.23544977256
21
2931.18846536871
31
0
0
LINE
8
Základní_vrstva
62
3
10
2607.23544977256
20
2931.18846536871
30
0
11
2607.09744977256
21
2931.05046536871
31
0
0
LINE
8
Základní_vrstva
62
3
10
2607.09744977256
20
2931.05046536871
30
0
11
2606.97744977256
21
2930.86446536871
31
0
0
LINE
8
Základní_vrstva
62
3
10
2606.97744977256
20
2930.86446536871
30
0
11
2606.99544977256
21
2930.66046536871
31
0
0
LINE
8
Základní_vrstva
62
3
10
2606.99544977256
20
2930.66046536871
30
0
11
2607.04944977256
21
2930.47446536871
31
0
0
LINE
8
Základní_vrstva
62
3
10
2607.04944977256
20
2930.47446536871
30
0
11
2607.02544977256
21
2930.27646536871
31
0
0
LINE
8
Základní_vrstva
62
3
10
2607.02544977256
20
2930.27646536871
30
0
11
2607.04344977256
21
2930.07246536871
31
0
0
LINE
8
Základní_vrstva
62
3
10
2607.04344977256
20
2930.07246536871
30
0
11
2607.19344977256
21
2929.91646536871
31
0
0
LINE
8
Základní_vrstva
62
3
10
2607.19344977256
20
2929.91646536871
30
0
11
2607.36744977256
21
2929.79646536871
31
0
0
LINE
8
Základní_vrstva
62
3
10
2607.36744977256
20
2929.79646536871
30
0
11
2607.48144977256
21
2929.63446536871
31
0
0
LINE
8
Základní_vrstva
62
3
10
2607.48144977256
20
2929.63446536871
30
0
11
2607.61344977256
21
2929.49646536871
31
0
0
LINE
8
Základní_vrstva
62
3
10
2607.61344977256
20
2929.49646536871
30
0
11
2607.81744977256
21
2929.47846536871
31
0
0
LINE
8
Základní_vrstva
62
3
10
2607.81744977256
20
2929.47846536871
30
0
11
2608.02744977256
21
2929.49646536871
31
0
0
LINE
8
Základní_vrstva
62
3
10
2608.02744977256
20
2929.49646536871
30
0
11
2608.21944977256
21
2929.44246536871
31
0
0
LINE
8
Základní_vrstva
62
3
10
2608.21944977256
20
2929.44246536871
30
0
11
2608.42944977256
21
2929.42446536871
31
0
0
LINE
8
Základní_vrstva
62
3
10
2608.42944977256
20
2929.42446536871
30
0
11
2608.59744977256
21
2929.53846536871
31
0
0
LINE
8
Základní_vrstva
62
3
10
2608.59744977256
20
2929.53846536871
30
0
11
2608.73544977256
21
2929.68246536871
31
0
0
LINE
8
Základní_vrstva
62
3
10
2608.73544977256
20
2929.68246536871
30
0
11
2608.92144977256
21
2929.76646536871
31
0
0
LINE
8
Základní_vrstva
62
3
10
2608.92144977256
20
2929.76646536871
30
0
11
2609.09544977256
21
2929.89246536871
31
0
0
LINE
8
Základní_vrstva
62
3
10
2609.09544977256
20
2929.89246536871
30
0
11
2609.15544977256
21
2930.09646536871
31
0
0
LINE
8
Základní_vrstva
62
3
10
2609.15544977256
20
2930.09646536871
30
0
11
2609.16744977256
21
2930.30046536871
31
0
0
LINE
8
Základní_vrstva
62
3
10
2609.16744977256
20
2930.30046536871
30
0
11
2609.25144977256
21
2930.49246536871
31
0
0
LINE
8
Základní_vrstva
62
3
10
2609.25144977256
20
2930.49246536871
30
0
11
2609.30544977256
21
2930.66646536871
31
0
0
CIRCLE
8
Základní_vrstva
62
3
10
2608.12344977256
20
2930.57046536871
30
0
40
0.0999999999999091
0
LINE
8
Základní_vrstva
62
3
10
2614.85569977256
20
2932.15474661871
30
0
11
2614.78369977256
21
2932.32274661871
31
0
0
LINE
8
Základní_vrstva
62
3
10
2614.78369977256
20
2932.32274661871
30
0
11
2614.66369977256
21
2932.50874661871
31
0
0
LINE
8
Základní_vrstva
62
3
10
2614.66369977256
20
2932.50874661871
30
0
11
2614.60969977256
21
2932.71274661871
31
0
0
LINE
8
Základní_vrstva
62
3
10
2614.60969977256
20
2932.71274661871
30
0
11
2614.52569977256
21
2932.89274661871
31
0
0
LINE
8
Základní_vrstva
62
3
10
2614.52569977256
20
2932.89274661871
30
0
11
2614.33369977256
21
2932.98874661871
31
0
0
LINE
8
Základní_vrstva
62
3
10
2614.33369977256
20
2932.98874661871
30
0
11
2614.13569977256
21
2933.04274661871
31
0
0
LINE
8
Základní_vrstva
62
3
10
2614.13569977256
20
2933.04274661871
30
0
11
2613.97369977256
21
2933.15674661871
31
0
0
LINE
8
Základní_vrstva
62
3
10
2613.97369977256
20
2933.15674661871
30
0
11
2613.78769977256
21
2933.24074661871
31
0
0
LINE
8
Základní_vrstva
62
3
10
2613.78769977256
20
2933.24074661871
30
0
11
2613.58969977256
21
2933.18674661871
31
0
0
LINE
8
Základní_vrstva
62
3
10
2613.58969977256
20
2933.18674661871
30
0
11
2613.41569977256
21
2933.10274661871
31
0
0
LINE
8
Základní_vrstva
62
3
10
2613.41569977256
20
2933.10274661871
30
0
11
2613.21169977256
21
2933.08474661871
31
0
0
LINE
8
Základní_vrstva
62
3
10
2613.21169977256
20
2933.08474661871
30
0
11
2613.00769977256
21
2933.03674661871
31
0
0
LINE
8
Základní_vrstva
62
3
10
2613.00769977256
20
2933.03674661871
30
0
11
2612.88169977256
21
2932.86274661871
31
0
0
LINE
8
Základní_vrstva
62
3
10
2612.88169977256
20
2932.86274661871
30
0
11
2612.79169977256
21
2932.67674661871
31
0
0
LINE
8
Základní_vrstva
62
3
10
2612.79169977256
20
2932.67674661871
30
0
11
2612.65369977256
21
2932.53874661871
31
0
0
LINE
8
Základní_vrstva
62
3
10
2612.65369977256
20
2932.53874661871
30
0
11
2612.53369977256
21
2932.35274661871
31
0
0
LINE
8
Základní_vrstva
62
3
10
2612.53369977256
20
2932.35274661871
30
0
11
2612.55169977256
21
2932.14874661871
31
0
0
LINE
8
Základní_vrstva
62
3
10
2612.55169977256
20
2932.14874661871
30
0
11
2612.60569977256
21
2931.96274661871
31
0
0
LINE
8
Základní_vrstva
62
3
10
2612.60569977256
20
2931.96274661871
30
0
11
2612.58169977256
21
2931.76474661871
31
0
0
LINE
8
Základní_vrstva
62
3
10
2612.58169977256
20
2931.76474661871
30
0
11
2612.59969977256
21
2931.56074661871
31
0
0
LINE
8
Základní_vrstva
62
3
10
2612.59969977256
20
2931.56074661871
30
0
11
2612.74969977256
21
2931.40474661871
31
0
0
LINE
8
Základní_vrstva
62
3
10
2612.74969977256
20
2931.40474661871
30
0
11
2612.92369977256
21
2931.28474661871
31
0
0
LINE
8
Základní_vrstva
62
3
10
2612.92369977256
20
2931.28474661871
30
0
11
2613.03769977256
21
2931.12274661871
31
0
0
LINE
8
Základní_vrstva
62
3
10
2613.03769977256
20
2931.12274661871
30
0
11
2613.16969977256
21
2930.98474661871
31
0
0
LINE
8
Základní_vrstva
62
3
10
2613.16969977256
20
2930.98474661871
30
0
11
2613.37369977256
21
2930.96674661871
31
0
0
LINE
8
Základní_vrstva
62
3
10
2613.37369977256
20
2930.96674661871
30
0
11
2613.58369977256
21
2930.98474661871
31
0
0
LINE
8
Základní_vrstva
62
3
10
2613.58369977256
20
2930.98474661871
30
0
11
2613.77569977256
21
2930.93074661871
31
0
0
LINE
8
Základní_vrstva
62
3
10
2613.77569977256
20
2930.93074661871
30
0
11
2613.98569977256
21
2930.91274661871
31
0
0
LINE
8
Základní_vrstva
62
3
10
2613.98569977256
20
2930.91274661871
30
0
11
2614.15369977256
21
2931.02674661871
31
0
0
LINE
8
Základní_vrstva
62
3
10
2614.15369977256
20
2931.02674661871
30
0
11
2614.29169977256
21
2931.17074661871
31
0
0
LINE
8
Základní_vrstva
62
3
10
2614.29169977256
20
2931.17074661871
30
0
11
2614.47769977256
21
2931.25474661871
31
0
0
LINE
8
Základní_vrstva
62
3
10
2614.47769977256
20
2931.25474661871
30
0
11
2614.65169977256
21
2931.38074661871
31
0
0
LINE
8
Základní_vrstva
62
3
10
2614.65169977256
20
2931.38074661871
30
0
11
2614.71169977256
21
2931.58474661871
31
0
0
LINE
8
Základní_vrstva
62
3
10
2614.71169977256
20
2931.58474661871
30
0
11
2614.72369977256
21
2931.78874661871
31
0
0
LINE
8
Základní_vrstva
62
3
10
2614.72369977256
20
2931.78874661871
30
0
11
2614.80769977256
21
2931.98074661871
31
0
0
LINE
8
Základní_vrstva
62
3
10
2614.80769977256
20
2931.98074661871
30
0
11
2614.86169977256
21
2932.15474661871
31
0
0
CIRCLE
8
Základní_vrstva
62
3
10
2613.67969977256
20
2932.05874661871
30
0
40
0.0999999999999091
0
LINE
8
Základní_vrstva
62
3
10
2620.51116852256
20
2933.84146536871
30
0
11
2620.43916852256
21
2934.00946536871
31
0
0
LINE
8
Základní_vrstva
62
3
10
2620.43916852256
20
2934.00946536871
30
0
11
2620.31916852256
21
2934.19546536871
31
0
0
LINE
8
Základní_vrstva
62
3
10
2620.31916852256
20
2934.19546536871
30
0
11
2620.26516852256
21
2934.39946536871
31
0
0
LINE
8
Základní_vrstva
62
3
10
2620.26516852256
20
2934.39946536871
30
0
11
2620.18116852256
21
2934.57946536871
31
0
0
LINE
8
Základní_vrstva
62
3
10
2620.18116852256
20
2934.57946536871
30
0
11
2619.98916852256
21
2934.67546536871
31
0
0
LINE
8
Základní_vrstva
62
3
10
2619.98916852256
20
2934.67546536871
30
0
11
2619.79116852256
21
2934.72946536871
31
0
0
LINE
8
Základní_vrstva
62
3
10
2619.79116852256
20
2934.72946536871
30
0
11
2619.62916852256
21
2934.84346536871
31
0
0
LINE
8
Základní_vrstva
62
3
10
2619.62916852256
20
2934.84346536871
30
0
11
2619.44316852256
21
2934.92746536871
31
0
0
LINE
8
Základní_vrstva
62
3
10
2619.44316852256
20
2934.92746536871
30
0
11
2619.24516852256
21
2934.87346536871
31
0
0
LINE
8
Základní_vrstva
62
3
10
2619.24516852256
20
2934.87346536871
30
0
11
2619.07116852256
21
2934.78946536871
31
0
0
LINE
8
Základní_vrstva
62
3
10
2619.07116852256
20
2934.78946536871
30
0
11
2618.86716852256
21
2934.77146536871
31
0
0
LINE
8
Základní_vrstva
62
3
10
2618.86716852256
20
2934.77146536871
30
0
11
2618.66316852256
21
2934.72346536871
31
0
0
LINE
8
Základní_vrstva
62
3
10
2618.66316852256
20
2934.72346536871
30
0
11
2618.53716852256
21
2934.54946536871
31
0
0
LINE
8
Základní_vrstva
62
3
10
2618.53716852256
20
2934.54946536871
30
0
11
2618.44716852256
21
2934.36346536871
31
0
0
LINE
8
Základní_vrstva
62
3
10
2618.44716852256
20
2934.36346536871
30
0
11
2618.30916852256
21
2934.22546536871
31
0
0
LINE
8
Základní_vrstva
62
3
10
2618.30916852256
20
2934.22546536871
30
0
11
2618.18916852256
21
2934.03946536871
31
0
0
LINE
8
Základní_vrstva
62
3
10
2618.18916852256
20
2934.03946536871
30
0
11
2618.20716852256
21
2933.83546536871
31
0
0
LINE
8
Základní_vrstva
62
3
10
2618.20716852256
20
2933.83546536871
30
0
11
2618.26116852256
21
2933.64946536871
31
0
0
LINE
8
Základní_vrstva
62
3
10
2618.26116852256
20
2933.64946536871
30
0
11
2618.23716852256
21
2933.45146536871
31
0
0
LINE
8
Základní_vrstva
62
3
10
2618.23716852256
20
2933.45146536871
30
0
11
2618.25516852256
21
2933.24746536871
31
0
0
LINE
8
Základní_vrstva
62
3
10
2618.25516852256
20
2933.24746536871
30
0
11
2618.40516852256
21
2933.09146536871
31
0
0
LINE
8
Základní_vrstva
62
3
10
2618.40516852256
20
2933.09146536871
30
0
11
2618.57916852256
21
2932.97146536871
31
0
0
LINE
8
Základní_vrstva
62
3
10
2618.57916852256
20
2932.97146536871
30
0
11
2618.69316852256
21
2932.80946536871
31
0
0
LINE
8
Základní_vrstva
62
3
10
2618.69316852256
20
2932.80946536871
30
0
11
2618.82516852256
21
2932.67146536871
31
0
0
LINE
8
Základní_vrstva
62
3
10
2618.82516852256
20
2932.67146536871
30
0
11
2619.02916852256
21
2932.65346536871
31
0
0
LINE
8
Základní_vrstva
62
3
10
2619.02916852256
20
2932.65346536871
30
0
11
2619.23916852256
21
2932.67146536871
31
0
0
LINE
8
Základní_vrstva
62
3
10
2619.23916852256
20
2932.67146536871
30
0
11
2619.43116852256
21
2932.61746536871
31
0
0
LINE
8
Základní_vrstva
62
3
10
2619.43116852256
20
2932.61746536871
30
0
11
2619.64116852256
21
2932.59946536871
31
0
0
LINE
8
Základní_vrstva
62
3
10
2619.64116852256
20
2932.59946536871
30
0
11
2619.80916852256
21
2932.71346536871
31
0
0
LINE
8
Základní_vrstva
62
3
10
2619.80916852256
20
2932.71346536871
30
0
11
2619.94716852256
21
2932.85746536871
31
0
0
LINE
8
Základní_vrstva
62
3
10
2619.94716852256
20
2932.85746536871
30
0
11
2620.13316852256
21
2932.94146536871
31
0
0
LINE
8
Základní_vrstva
62
3
10
2620.13316852256
20
2932.94146536871
30
0
11
2620.30716852256
21
2933.06746536871
31
0
0
LINE
8
Základní_vrstva
62
3
10
2620.30716852256
20
2933.06746536871
30
0
11
2620.36716852256
21
2933.27146536871
31
0
0
LINE
8
Základní_vrstva
62
3
10
2620.36716852256
20
2933.27146536871
30
0
11
2620.37916852256
21
2933.47546536871
31
0
0
LINE
8
Základní_vrstva
62
3
10
2620.37916852256
20
2933.47546536871
30
0
11
2620.46316852256
21
2933.66746536871
31
0
0
LINE
8
Základní_vrstva
62
3
10
2620.46316852256
20
2933.66746536871
30
0
11
2620.51716852256
21
2933.84146536871
31
0
0
CIRCLE
8
Základní_vrstva
62
3
10
2619.33516852256
20
2933.74546536871
30
0
40
0.0999999999999091
0
LINE
8
Základní_vrstva
62
3
10
2626.16663727256
20
2935.32974661871
30
0
11
2626.09463727256
21
2935.49774661871
31
0
0
LINE
8
Základní_vrstva
62
3
10
2626.09463727256
20
2935.49774661871
30
0
11
2625.97463727256
21
2935.68374661871
31
0
0
LINE
8
Základní_vrstva
62
3
10
2625.97463727256
20
2935.68374661871
30
0
11
2625.92063727256
21
2935.88774661871
31
0
0
LINE
8
Základní_vrstva
62
3
10
2625.92063727256
20
2935.88774661871
30
0
11
2625.83663727256
21
2936.06774661871
31
0
0
LINE
8
Základní_vrstva
62
3
10
2625.83663727256
20
2936.06774661871
30
0
11
2625.64463727256
21
2936.16374661871
31
0
0
LINE
8
Základní_vrstva
62
3
10
2625.64463727256
20
2936.16374661871
30
0
11
2625.44663727256
21
2936.21774661871
31
0
0
LINE
8
Základní_vrstva
62
3
10
2625.44663727256
20
2936.21774661871
30
0
11
2625.28463727256
21
2936.33174661871
31
0
0
LINE
8
Základní_vrstva
62
3
10
2625.28463727256
20
2936.33174661871
30
0
11
2625.09863727256
21
2936.41574661871
31
0
0
LINE
8
Základní_vrstva
62
3
10
2625.09863727256
20
2936.41574661871
30
0
11
2624.90063727256
21
2936.36174661871
31
0
0
LINE
8
Základní_vrstva
62
3
10
2624.90063727256
20
2936.36174661871
30
0
11
2624.72663727256
21
2936.27774661871
31
0
0
LINE
8
Základní_vrstva
62
3
10
2624.72663727256
20
2936.27774661871
30
0
11
2624.52263727256
21
2936.25974661871
31
0
0
LINE
8
Základní_vrstva
62
3
10
2624.52263727256
20
2936.25974661871
30
0
11
2624.31863727256
21
2936.21174661871
31
0
0
LINE
8
Základní_vrstva
62
3
10
2624.31863727256
20
2936.21174661871
30
0
11
2624.19263727256
21
2936.03774661871
31
0
0
LINE
8
Základní_vrstva
62
3
10
2624.19263727256
20
2936.03774661871
30
0
11
2624.10263727256
21
2935.85174661871
31
0
0
LINE
8
Základní_vrstva
62
3
10
2624.10263727256
20
2935.85174661871
30
0
11
2623.96463727256
21
2935.71374661871
31
0
0
LINE
8
Základní_vrstva
62
3
10
2623.96463727256
20
2935.71374661871
30
0
11
2623.84463727256
21
2935.52774661871
31
0
0
LINE
8
Základní_vrstva
62
3
10
2623.84463727256
20
2935.52774661871
30
0
11
2623.86263727256
21
2935.32374661871
31
0
0
LINE
8
Základní_vrstva
62
3
10
2623.86263727256
20
2935.32374661871
30
0
11
2623.91663727256
21
2935.13774661871
31
0
0
LINE
8
Základní_vrstva
62
3
10
2623.91663727256
20
2935.13774661871
30
0
11
2623.89263727256
21
2934.93974661871
31
0
0
LINE
8
Základní_vrstva
62
3
10
2623.89263727256
20
2934.93974661871
30
0
11
2623.91063727256
21
2934.73574661871
31
0
0
LINE
8
Základní_vrstva
62
3
10
2623.91063727256
20
2934.73574661871
30
0
11
2624.06063727256
21
2934.57974661871
31
0
0
LINE
8
Základní_vrstva
62
3
10
2624.06063727256
20
2934.57974661871
30
0
11
2624.23463727256
21
2934.45974661871
31
0
0
LINE
8
Základní_vrstva
62
3
10
2624.23463727256
20
2934.45974661871
30
0
11
2624.34863727256
21
2934.29774661871
31
0
0
LINE
8
Základní_vrstva
62
3
10
2624.34863727256
20
2934.29774661871
30
0
11
2624.48063727256
21
2934.15974661871
31
0
0
LINE
8
Základní_vrstva
62
3
10
2624.48063727256
20
2934.15974661871
30
0
11
2624.68463727256
21
2934.14174661871
31
0
0
LINE
8
Základní_vrstva
62
3
10
2624.68463727256
20
2934.14174661871
30
0
11
2624.89463727256
21
2934.15974661871
31
0
0
LINE
8
Základní_vrstva
62
3
10
2624.89463727256
20
2934.15974661871
30
0
11
2625.08663727256
21
2934.10574661871
31
0
0
LINE
8
Základní_vrstva
62
3
10
2625.08663727256
20
2934.10574661871
30
0
11
2625.29663727256
21
2934.08774661871
31
0
0
LINE
8
Základní_vrstva
62
3
10
2625.29663727256
20
2934.08774661871
30
0
11
2625.46463727256
21
2934.20174661871
31
0
0
LINE
8
Základní_vrstva
62
3
10
2625.46463727256
20
2934.20174661871
30
0
11
2625.60263727256
21
2934.34574661871
31
0
0
LINE
8
Základní_vrstva
62
3
10
2625.60263727256
20
2934.34574661871
30
0
11
2625.78863727256
21
2934.42974661871
31
0
0
LINE
8
Základní_vrstva
62
3
10
2625.78863727256
20
2934.42974661871
30
0
11
2625.96263727256
21
2934.55574661871
31
0
0
LINE
8
Základní_vrstva
62
3
10
2625.96263727256
20
2934.55574661871
30
0
11
2626.02263727256
21
2934.75974661871
31
0
0
LINE
8
Základní_vrstva
62
3
10
2626.02263727256
20
2934.75974661871
30
0
11
2626.03463727256
21
2934.96374661871
31
0
0
LINE
8
Základní_vrstva
62
3
10
2626.03463727256
20
2934.96374661871
30
0
11
2626.11863727256
21
2935.15574661871
31
0
0
LINE
8
Základní_vrstva
62
3
10
2626.11863727256
20
2935.15574661871
30
0
11
2626.17263727256
21
2935.32974661871
31
0
0
CIRCLE
8
Základní_vrstva
62
3
10
2624.99063727256
20
2935.23374661871
30
0
40
0.0999999999999091
0
LINE
8
Základní_vrstva
62
3
10
2631.82210602256
20
2936.91724661871
30
0
11
2631.75010602256
21
2937.08524661871
31
0
0
LINE
8
Základní_vrstva
62
3
10
2631.75010602256
20
2937.08524661871
30
0
11
2631.63010602256
21
2937.27124661871
31
0
0
LINE
8
Základní_vrstva
62
3
10
2631.63010602256
20
2937.27124661871
30
0
11
2631.57610602256
21
2937.47524661871
31
0
0
LINE
8
Základní_vrstva
62
3
10
2631.57610602256
20
2937.47524661871
30
0
11
2631.49210602256
21
2937.65524661871
31
0
0
LINE
8
Základní_vrstva
62
3
10
2631.49210602256
20
2937.65524661871
30
0
11
2631.30010602256
21
2937.75124661871
31
0
0
LINE
8
Základní_vrstva
62
3
10
2631.30010602256
20
2937.75124661871
30
0
11
2631.10210602256
21
2937.80524661871
31
0
0
LINE
8
Základní_vrstva
62
3
10
2631.10210602256
20
2937.80524661871
30
0
11
2630.94010602256
21
2937.91924661871
31
0
0
LINE
8
Základní_vrstva
62
3
10
2630.94010602256
20
2937.91924661871
30
0
11
2630.75410602256
21
2938.00324661871
31
0
0
LINE
8
Základní_vrstva
62
3
10
2630.75410602256
20
2938.00324661871
30
0
11
2630.55610602256
21
2937.94924661871
31
0
0
LINE
8
Základní_vrstva
62
3
10
2630.55610602256
20
2937.94924661871
30
0
11
2630.38210602256
21
2937.86524661871
31
0
0
LINE
8
Základní_vrstva
62
3
10
2630.38210602256
20
2937.86524661871
30
0
11
2630.17810602256
21
2937.84724661871
31
0
0
LINE
8
Základní_vrstva
62
3
10
2630.17810602256
20
2937.84724661871
30
0
11
2629.97410602256
21
2937.79924661871
31
0
0
LINE
8
Základní_vrstva
62
3
10
2629.97410602256
20
2937.79924661871
30
0
11
2629.84810602256
21
2937.62524661871
31
0
0
LINE
8
Základní_vrstva
62
3
10
2629.84810602256
20
2937.62524661871
30
0
11
2629.75810602256
21
2937.43924661871
31
0
0
LINE
8
Základní_vrstva
62
3
10
2629.75810602256
20
2937.43924661871
30
0
11
2629.62010602256
21
2937.30124661871
31
0
0
LINE
8
Základní_vrstva
62
3
10
2629.62010602256
20
2937.30124661871
30
0
11
2629.50010602256
21
2937.11524661871
31
0
0
LINE
8
Základní_vrstva
62
3
10
2629.50010602256
20
2937.11524661871
30
0
11
2629.51810602256
21
2936.91124661871
31
0
0
LINE
8
Základní_vrstva
62
3
10
2629.51810602256
20
2936.91124661871
30
0
11
2629.57210602256
21
2936.72524661871
31
0
0
LINE
8
Základní_vrstva
62
3
10
2629.57210602256
20
2936.72524661871
30
0
11
2629.54810602256
21
2936.52724661871
31
0
0
LINE
8
Základní_vrstva
62
3
10
2629.54810602256
20
2936.52724661871
30
0
11
2629.56610602256
21
2936.32324661871
31
0
0
LINE
8
Základní_vrstva
62
3
10
2629.56610602256
20
2936.32324661871
30
0
11
2629.71610602256
21
2936.16724661871
31
0
0
LINE
8
Základní_vrstva
62
3
10
2629.71610602256
20
2936.16724661871
30
0
11
2629.89010602256
21
2936.04724661871
31
0
0
LINE
8
Základní_vrstva
62
3
10
2629.89010602256
20
2936.04724661871
30
0
11
2630.00410602256
21
2935.88524661871
31
0
0
LINE
8
Základní_vrstva
62
3
10
2630.00410602256
20
2935.88524661871
30
0
11
2630.13610602256
21
2935.74724661871
31
0
0
LINE
8
Základní_vrstva
62
3
10
2630.13610602256
20
2935.74724661871
30
0
11
2630.34010602256
21
2935.72924661871
31
0
0
LINE
8
Základní_vrstva
62
3
10
2630.34010602256
20
2935.72924661871
30
0
11
2630.55010602256
21
2935.74724661871
31
0
0
LINE
8
Základní_vrstva
62
3
10
2630.55010602256
20
2935.74724661871
30
0
11
2630.74210602256
21
2935.69324661871
31
0
0
LINE
8
Základní_vrstva
62
3
10
2630.74210602256
20
2935.69324661871
30
0
11
2630.95210602256
21
2935.67524661871
31
0
0
LINE
8
Základní_vrstva
62
3
10
2630.95210602256
20
2935.67524661871
30
0
11
2631.12010602256
21
2935.78924661871
31
0
0
LINE
8
Základní_vrstva
62
3
10
2631.12010602256
20
2935.78924661871
30
0
11
2631.25810602256
21
2935.93324661871
31
0
0
LINE
8
Základní_vrstva
62
3
10
2631.25810602256
20
2935.93324661871
30
0
11
2631.44410602256
21
2936.01724661871
31
0
0
LINE
8
Základní_vrstva
62
3
10
2631.44410602256
20
2936.01724661871
30
0
11
2631.61810602256
21
2936.14324661871
31
0
0
LINE
8
Základní_vrstva
62
3
10
2631.61810602256
20
2936.14324661871
30
0
11
2631.67810602256
21
2936.34724661871
31
0
0
LINE
8
Základní_vrstva
62
3
10
2631.67810602256
20
2936.34724661871
30
0
11
2631.69010602256
21
2936.55124661871
31
0
0
LINE
8
Základní_vrstva
62
3
10
2631.69010602256
20
2936.55124661871
30
0
11
2631.77410602256
21
2936.74324661871
31
0
0
LINE
8
Základní_vrstva
62
3
10
2631.77410602256
20
2936.74324661871
30
0
11
2631.82810602256
21
2936.91724661871
31
0
0
CIRCLE
8
Základní_vrstva
62
3
10
2630.64610602256
20
2936.82124661871
30
0
40
0.0999999999999091
0
LINE
8
Základní_vrstva
62
3
10
2637.47757477256
20
2938.70318411871
30
0
11
2637.40557477256
21
2938.87118411871
31
0
0
LINE
8
Základní_vrstva
62
3
10
2637.40557477256
20
2938.87118411871
30
0
11
2637.28557477256
21
2939.05718411871
31
0
0
LINE
8
Základní_vrstva
62
3
10
2637.28557477256
20
2939.05718411871
30
0
11
2637.23157477256
21
2939.26118411871
31
0
0
LINE
8
Základní_vrstva
62
3
10
2637.23157477256
20
2939.26118411871
30
0
11
2637.14757477256
21
2939.44118411871
31
0
0
LINE
8
Základní_vrstva
62
3
10
2637.14757477256
20
2939.44118411871
30
0
11
2636.95557477256
21
2939.53718411871
31
0
0
LINE
8
Základní_vrstva
62
3
10
2636.95557477256
20
2939.53718411871
30
0
11
2636.75757477256
21
2939.59118411871
31
0
0
LINE
8
Základní_vrstva
62
3
10
2636.75757477256
20
2939.59118411871
30
0
11
2636.59557477256
21
2939.70518411871
31
0
0
LINE
8
Základní_vrstva
62
3
10
2636.59557477256
20
2939.70518411871
30
0
11
2636.40957477256
21
2939.78918411871
31
0
0
LINE
8
Základní_vrstva
62
3
10
2636.40957477256
20
2939.78918411871
30
0
11
2636.21157477256
21
2939.73518411871
31
0
0
LINE
8
Základní_vrstva
62
3
10
2636.21157477256
20
2939.73518411871
30
0
11
2636.03757477256
21
2939.65118411871
31
0
0
LINE
8
Základní_vrstva
62
3
10
2636.03757477256
20
2939.65118411871
30
0
11
2635.83357477256
21
2939.63318411871
31
0
0
LINE
8
Základní_vrstva
62
3
10
2635.83357477256
20
2939.63318411871
30
0
11
2635.62957477256
21
2939.58518411871
31
0
0
LINE
8
Základní_vrstva
62
3
10
2635.62957477256
20
2939.58518411871
30
0
11
2635.50357477256
21
2939.41118411871
31
0
0
LINE
8
Základní_vrstva
62
3
10
2635.50357477256
20
2939.41118411871
30
0
11
2635.41357477256
21
2939.22518411871
31
0
0
LINE
8
Základní_vrstva
62
3
10
2635.41357477256
20
2939.22518411871
30
0
11
2635.27557477256
21
2939.08718411871
31
0
0
LINE
8
Základní_vrstva
62
3
10
2635.27557477256
20
2939.08718411871
30
0
11
2635.15557477256
21
2938.90118411871
31
0
0
LINE
8
Základní_vrstva
62
3
10
2635.15557477256
20
2938.90118411871
30
0
11
2635.17357477256
21
2938.69718411871
31
0
0
LINE
8
Základní_vrstva
62
3
10
2635.17357477256
20
2938.69718411871
30
0
11
2635.22757477256
21
2938.51118411871
31
0
0
LINE
8
Základní_vrstva
62
3
10
2635.22757477256
20
2938.51118411871
30
0
11
2635.20357477256
21
2938.31318411871
31
0
0
LINE
8
Základní_vrstva
62
3
10
2635.20357477256
20
2938.31318411871
30
0
11
2635.22157477256
21
2938.10918411871
31
0
0
LINE
8
Základní_vrstva
62
3
10
2635.22157477256
20
2938.10918411871
30
0
11
2635.37157477256
21
2937.95318411871
31
0
0
LINE
8
Základní_vrstva
62
3
10
2635.37157477256
20
2937.95318411871
30
0
11
2635.54557477256
21
2937.83318411871
31
0
0
LINE
8
Základní_vrstva
62
3
10
2635.54557477256
20
2937.83318411871
30
0
11
2635.65957477256
21
2937.67118411871
31
0
0
LINE
8
Základní_vrstva
62
3
10
2635.65957477256
20
2937.67118411871
30
0
11
2635.79157477256
21
2937.53318411871
31
0
0
LINE
8
Základní_vrstva
62
3
10
2635.79157477256
20
2937.53318411871
30
0
11
2635.99557477256
21
2937.51518411871
31
0
0
LINE
8
Základní_vrstva
62
3
10
2635.99557477256
20
2937.51518411871
30
0
11
2636.20557477256
21
2937.53318411871
31
0
0
LINE
8
Základní_vrstva
62
3
10
2636.20557477256
20
2937.53318411871
30
0
11
2636.39757477256
21
2937.47918411871
31
0
0
LINE
8
Základní_vrstva
62
3
10
2636.39757477256
20
2937.47918411871
30
0
11
2636.60757477256
21
2937.46118411871
31
0
0
LINE
8
Základní_vrstva
62
3
10
2636.60757477256
20
2937.46118411871
30
0
11
2636.77557477256
21
2937.57518411871
31
0
0
LINE
8
Základní_vrstva
62
3
10
2636.77557477256
20
2937.57518411871
30
0
11
2636.91357477256
21
2937.71918411871
31
0
0
LINE
8
Základní_vrstva
62
3
10
2636.91357477256
20
2937.71918411871
30
0
11
2637.09957477256
21
2937.80318411871
31
0
0
LINE
8
Základní_vrstva
62
3
10
2637.09957477256
20
2937.80318411871
30
0
11
2637.27357477256
21
2937.92918411871
31
0
0
LINE
8
Základní_vrstva
62
3
10
2637.27357477256
20
2937.92918411871
30
0
11
2637.33357477256
21
2938.13318411871
31
0
0
LINE
8
Základní_vrstva
62
3
10
2637.33357477256
20
2938.13318411871
30
0
11
2637.34557477256
21
2938.33718411871
31
0
0
LINE
8
Základní_vrstva
62
3
10
2637.34557477256
20
2938.33718411871
30
0
11
2637.42957477256
21
2938.52918411871
31
0
0
LINE
8
Základní_vrstva
62
3
10
2637.42957477256
20
2938.52918411871
30
0
11
2637.48357477256
21
2938.70318411871
31
0
0
CIRCLE
8
Základní_vrstva
62
3
10
2636.30157477256
20
2938.60718411871
30
0
40
0.0999999999999091
0
LINE
8
Základní_vrstva
62
3
10
2642.53773102256
20
2940.19146536871
30
0
11
2642.46573102256
21
2940.35946536871
31
0
0
LINE
8
Základní_vrstva
62
3
10
2642.46573102256
20
2940.35946536871
30
0
11
2642.34573102256
21
2940.54546536871
31
0
0
LINE
8
Základní_vrstva
62
3
10
2642.34573102256
20
2940.54546536871
30
0
11
2642.29173102256
21
2940.74946536871
31
0
0
LINE
8
Základní_vrstva
62
3
10
2642.29173102256
20
2940.74946536871
30
0
11
2642.20773102256
21
2940.92946536871
31
0
0
LINE
8
Základní_vrstva
62
3
10
2642.20773102256
20
2940.92946536871
30
0
11
2642.01573102256
21
2941.02546536871
31
0
0
LINE
8
Základní_vrstva
62
3
10
2642.01573102256
20
2941.02546536871
30
0
11
2641.81773102256
21
2941.07946536871
31
0
0
LINE
8
Základní_vrstva
62
3
10
2641.81773102256
20
2941.07946536871
30
0
11
2641.65573102256
21
2941.19346536871
31
0
0
LINE
8
Základní_vrstva
62
3
10
2641.65573102256
20
2941.19346536871
30
0
11
2641.46973102256
21
2941.27746536871
31
0
0
LINE
8
Základní_vrstva
62
3
10
2641.46973102256
20
2941.27746536871
30
0
11
2641.27173102256
21
2941.22346536871
31
0
0
LINE
8
Základní_vrstva
62
3
10
2641.27173102256
20
2941.22346536871
30
0
11
2641.09773102256
21
2941.13946536871
31
0
0
LINE
8
Základní_vrstva
62
3
10
2641.09773102256
20
2941.13946536871
30
0
11
2640.89373102256
21
2941.12146536871
31
0
0
LINE
8
Základní_vrstva
62
3
10
2640.89373102256
20
2941.12146536871
30
0
11
2640.68973102256
21
2941.07346536871
31
0
0
LINE
8
Základní_vrstva
62
3
10
2640.68973102256
20
2941.07346536871
30
0
11
2640.56373102256
21
2940.89946536871
31
0
0
LINE
8
Základní_vrstva
62
3
10
2640.56373102256
20
2940.89946536871
30
0
11
2640.47373102256
21
2940.71346536871
31
0
0
LINE
8
Základní_vrstva
62
3
10
2640.47373102256
20
2940.71346536871
30
0
11
2640.33573102256
21
2940.57546536871
31
0
0
LINE
8
Základní_vrstva
62
3
10
2640.33573102256
20
2940.57546536871
30
0
11
2640.21573102256
21
2940.38946536871
31
0
0
LINE
8
Základní_vrstva
62
3
10
2640.21573102256
20
2940.38946536871
30
0
11
2640.23373102256
21
2940.18546536871
31
0
0
LINE
8
Základní_vrstva
62
3
10
2640.23373102256
20
2940.18546536871
30
0
11
2640.28773102256
21
2939.99946536871
31
0
0
LINE
8
Základní_vrstva
62
3
10
2640.28773102256
20
2939.99946536871
30
0
11
2640.26373102256
21
2939.80146536871
31
0
0
LINE
8
Základní_vrstva
62
3
10
2640.26373102256
20
2939.80146536871
30
0
11
2640.28173102256
21
2939.59746536871
31
0
0
LINE
8
Základní_vrstva
62
3
10
2640.28173102256
20
2939.59746536871
30
0
11
2640.43173102256
21
2939.44146536871
31
0
0
LINE
8
Základní_vrstva
62
3
10
2640.43173102256
20
2939.44146536871
30
0
11
2640.60573102256
21
2939.32146536871
31
0
0
LINE
8
Základní_vrstva
62
3
10
2640.60573102256
20
2939.32146536871
30
0
11
2640.71973102256
21
2939.15946536871
31
0
0
LINE
8
Základní_vrstva
62
3
10
2640.71973102256
20
2939.15946536871
30
0
11
2640.85173102256
21
2939.02146536871
31
0
0
LINE
8
Základní_vrstva
62
3
10
2640.85173102256
20
2939.02146536871
30
0
11
2641.05573102256
21
2939.00346536871
31
0
0
LINE
8
Základní_vrstva
62
3
10
2641.05573102256
20
2939.00346536871
30
0
11
2641.26573102256
21
2939.02146536871
31
0
0
LINE
8
Základní_vrstva
62
3
10
2641.26573102256
20
2939.02146536871
30
0
11
2641.45773102256
21
2938.96746536871
31
0
0
LINE
8
Základní_vrstva
62
3
10
2641.45773102256
20
2938.96746536871
30
0
11
2641.66773102256
21
2938.94946536871
31
0
0
LINE
8
Základní_vrstva
62
3
10
2641.66773102256
20
2938.94946536871
30
0
11
2641.83573102256
21
2939.06346536871
31
0
0
LINE
8
Základní_vrstva
62
3
10
2641.83573102256
20
2939.06346536871
30
0
11
2641.97373102256
21
2939.20746536871
31
0
0
LINE
8
Základní_vrstva
62
3
10
2641.97373102256
20
2939.20746536871
30
0
11
2642.15973102256
21
2939.29146536871
31
0
0
LINE
8
Základní_vrstva
62
3
10
2642.15973102256
20
2939.29146536871
30
0
11
2642.33373102256
21
2939.41746536871
31
0
0
LINE
8
Základní_vrstva
62
3
10
2642.33373102256
20
2939.41746536871
30
0
11
2642.39373102256
21
2939.62146536871
31
0
0
LINE
8
Základní_vrstva
62
3
10
2642.39373102256
20
2939.62146536871
30
0
11
2642.40573102256
21
2939.82546536871
31
0
0
LINE
8
Základní_vrstva
62
3
10
2642.40573102256
20
2939.82546536871
30
0
11
2642.48973102256
21
2940.01746536871
31
0
0
LINE
8
Základní_vrstva
62
3
10
2642.48973102256
20
2940.01746536871
30
0
11
2642.54373102256
21
2940.19146536871
31
0
0
CIRCLE
8
Základní_vrstva
62
3
10
2641.36173102256
20
2940.09546536871
30
0
40
0.0999999999999091
0
LINE
8
Základní_vrstva
62
3
10
2647.39944977256
20
2941.48130911871
30
0
11
2647.32744977256
21
2941.64930911871
31
0
0
LINE
8
Základní_vrstva
62
3
10
2647.32744977256
20
2941.64930911871
30
0
11
2647.20744977256
21
2941.83530911871
31
0
0
LINE
8
Základní_vrstva
62
3
10
2647.20744977256
20
2941.83530911871
30
0
11
2647.15344977256
21
2942.03930911871
31
0
0
LINE
8
Základní_vrstva
62
3
10
2647.15344977256
20
2942.03930911871
30
0
11
2647.06944977256
21
2942.21930911871
31
0
0
LINE
8
Základní_vrstva
62
3
10
2647.06944977256
20
2942.21930911871
30
0
11
2646.87744977256
21
2942.31530911871
31
0
0
LINE
8
Základní_vrstva
62
3
10
2646.87744977256
20
2942.31530911871
30
0
11
2646.67944977256
21
2942.36930911871
31
0
0
LINE
8
Základní_vrstva
62
3
10
2646.67944977256
20
2942.36930911871
30
0
11
2646.51744977256
21
2942.48330911871
31
0
0
LINE
8
Základní_vrstva
62
3
10
2646.51744977256
20
2942.48330911871
30
0
11
2646.33144977256
21
2942.56730911871
31
0
0
LINE
8
Základní_vrstva
62
3
10
2646.33144977256
20
2942.56730911871
30
0
11
2646.13344977256
21
2942.51330911871
31
0
0
LINE
8
Základní_vrstva
62
3
10
2646.13344977256
20
2942.51330911871
30
0
11
2645.95944977256
21
2942.42930911871
31
0
0
LINE
8
Základní_vrstva
62
3
10
2645.95944977256
20
2942.42930911871
30
0
11
2645.75544977256
21
2942.41130911871
31
0
0
LINE
8
Základní_vrstva
62
3
10
2645.75544977256
20
2942.41130911871
30
0
11
2645.55144977256
21
2942.36330911871
31
0
0
LINE
8
Základní_vrstva
62
3
10
2645.55144977256
20
2942.36330911871
30
0
11
2645.42544977256
21
2942.18930911871
31
0
0
LINE
8
Základní_vrstva
62
3
10
2645.42544977256
20
2942.18930911871
30
0
11
2645.33544977256
21
2942.00330911871
31
0
0
LINE
8
Základní_vrstva
62
3
10
2645.33544977256
20
2942.00330911871
30
0
11
2645.19744977256
21
2941.86530911871
31
0
0
LINE
8
Základní_vrstva
62
3
10
2645.19744977256
20
2941.86530911871
30
0
11
2645.07744977256
21
2941.67930911871
31
0
0
LINE
8
Základní_vrstva
62
3
10
2645.07744977256
20
2941.67930911871
30
0
11
2645.09544977256
21
2941.47530911871
31
0
0
LINE
8
Základní_vrstva
62
3
10
2645.09544977256
20
2941.47530911871
30
0
11
2645.14944977256
21
2941.28930911871
31
0
0
LINE
8
Základní_vrstva
62
3
10
2645.14944977256
20
2941.28930911871
30
0
11
2645.12544977256
21
2941.09130911871
31
0
0
LINE
8
Základní_vrstva
62
3
10
2645.12544977256
20
2941.09130911871
30
0
11
2645.14344977256
21
2940.88730911871
31
0
0
LINE
8
Základní_vrstva
62
3
10
2645.14344977256
20
2940.88730911871
30
0
11
2645.29344977256
21
2940.73130911871
31
0
0
LINE
8
Základní_vrstva
62
3
10
2645.29344977256
20
2940.73130911871
30
0
11
2645.46744977256
21
2940.61130911871
31
0
0
LINE
8
Základní_vrstva
62
3
10
2645.46744977256
20
2940.61130911871
30
0
11
2645.58144977256
21
2940.44930911871
31
0
0
LINE
8
Základní_vrstva
62
3
10
2645.58144977256
20
2940.44930911871
30
0
11
2645.71344977256
21
2940.31130911871
31
0
0
LINE
8
Základní_vrstva
62
3
10
2645.71344977256
20
2940.31130911871
30
0
11
2645.91744977256
21
2940.29330911871
31
0
0
LINE
8
Základní_vrstva
62
3
10
2645.91744977256
20
2940.29330911871
30
0
11
2646.12744977256
21
2940.31130911871
31
0
0
LINE
8
Základní_vrstva
62
3
10
2646.12744977256
20
2940.31130911871
30
0
11
2646.31944977256
21
2940.25730911871
31
0
0
LINE
8
Základní_vrstva
62
3
10
2646.31944977256
20
2940.25730911871
30
0
11
2646.52944977256
21
2940.23930911871
31
0
0
LINE
8
Základní_vrstva
62
3
10
2646.52944977256
20
2940.23930911871
30
0
11
2646.69744977256
21
2940.35330911871
31
0
0
LINE
8
Základní_vrstva
62
3
10
2646.69744977256
20
2940.35330911871
30
0
11
2646.83544977256
21
2940.49730911871
31
0
0
LINE
8
Základní_vrstva
62
3
10
2646.83544977256
20
2940.49730911871
30
0
11
2647.02144977256
21
2940.58130911871
31
0
0
LINE
8
Základní_vrstva
62
3
10
2647.02144977256
20
2940.58130911871
30
0
11
2647.19544977256
21
2940.70730911871
31
0
0
LINE
8
Základní_vrstva
62
3
10
2647.19544977256
20
2940.70730911871
30
0
11
2647.25544977256
21
2940.91130911871
31
0
0
LINE
8
Základní_vrstva
62
3
10
2647.25544977256
20
2940.91130911871
30
0
11
2647.26744977256
21
2941.11530911871
31
0
0
LINE
8
Základní_vrstva
62
3
10
2647.26744977256
20
2941.11530911871
30
0
11
2647.35144977256
21
2941.30730911871
31
0
0
LINE
8
Základní_vrstva
62
3
10
2647.35144977256
20
2941.30730911871
30
0
11
2647.40544977256
21
2941.48130911871
31
0
0
CIRCLE
8
Základní_vrstva
62
3
10
2646.22344977256
20
2941.38530911871
30
0
40
0.0999999999999091
0
LINE
8
Základní_vrstva
62
3
10
2657.81741852256
20
2944.25943411871
30
0
11
2657.74541852256
21
2944.42743411871
31
0
0
LINE
8
Základní_vrstva
62
3
10
2657.74541852256
20
2944.42743411871
30
0
11
2657.62541852256
21
2944.61343411871
31
0
0
LINE
8
Základní_vrstva
62
3
10
2657.62541852256
20
2944.61343411871
30
0
11
2657.57141852256
21
2944.81743411871
31
0
0
LINE
8
Základní_vrstva
62
3
10
2657.57141852256
20
2944.81743411871
30
0
11
2657.48741852256
21
2944.99743411871
31
0
0
LINE
8
Základní_vrstva
62
3
10
2657.48741852256
20
2944.99743411871
30
0
11
2657.29541852256
21
2945.09343411871
31
0
0
LINE
8
Základní_vrstva
62
3
10
2657.29541852256
20
2945.09343411871
30
0
11
2657.09741852256
21
2945.14743411871
31
0
0
LINE
8
Základní_vrstva
62
3
10
2657.09741852256
20
2945.14743411871
30
0
11
2656.93541852256
21
2945.26143411871
31
0
0
LINE
8
Základní_vrstva
62
3
10
2656.93541852256
20
2945.26143411871
30
0
11
2656.74941852256
21
2945.34543411871
31
0
0
LINE
8
Základní_vrstva
62
3
10
2656.74941852256
20
2945.34543411871
30
0
11
2656.55141852256
21
2945.29143411871
31
0
0
LINE
8
Základní_vrstva
62
3
10
2656.55141852256
20
2945.29143411871
30
0
11
2656.37741852256
21
2945.20743411871
31
0
0
LINE
8
Základní_vrstva
62
3
10
2656.37741852256
20
2945.20743411871
30
0
11
2656.17341852256
21
2945.18943411871
31
0
0
LINE
8
Základní_vrstva
62
3
10
2656.17341852256
20
2945.18943411871
30
0
11
2655.96941852256
21
2945.14143411871
31
0
0
LINE
8
Základní_vrstva
62
3
10
2655.96941852256
20
2945.14143411871
30
0
11
2655.84341852256
21
2944.96743411871
31
0
0
LINE
8
Základní_vrstva
62
3
10
2655.84341852256
20
2944.96743411871
30
0
11
2655.75341852256
21
2944.78143411871
31
0
0
LINE
8
Základní_vrstva
62
3
10
2655.75341852256
20
2944.78143411871
30
0
11
2655.61541852256
21
2944.64343411871
31
0
0
LINE
8
Základní_vrstva
62
3
10
2655.61541852256
20
2944.64343411871
30
0
11
2655.49541852256
21
2944.45743411871
31
0
0
LINE
8
Základní_vrstva
62
3
10
2655.49541852256
20
2944.45743411871
30
0
11
2655.51341852256
21
2944.25343411871
31
0
0
LINE
8
Základní_vrstva
62
3
10
2655.51341852256
20
2944.25343411871
30
0
11
2655.56741852256
21
2944.06743411871
31
0
0
LINE
8
Základní_vrstva
62
3
10
2655.56741852256
20
2944.06743411871
30
0
11
2655.54341852256
21
2943.86943411871
31
0
0
LINE
8
Základní_vrstva
62
3
10
2655.54341852256
20
2943.86943411871
30
0
11
2655.56141852256
21
2943.66543411871
31
0
0
LINE
8
Základní_vrstva
62
3
10
2655.56141852256
20
2943.66543411871
30
0
11
2655.71141852256
21
2943.50943411871
31
0
0
LINE
8
Základní_vrstva
62
3
10
2655.71141852256
20
2943.50943411871
30
0
11
2655.88541852256
21
2943.38943411871
31
0
0
LINE
8
Základní_vrstva
62
3
10
2655.88541852256
20
2943.38943411871
30
0
11
2655.99941852256
21
2943.22743411871
31
0
0
LINE
8
Základní_vrstva
62
3
10
2655.99941852256
20
2943.22743411871
30
0
11
2656.13141852256
21
2943.08943411871
31
0
0
LINE
8
Základní_vrstva
62
3
10
2656.13141852256
20
2943.08943411871
30
0
11
2656.33541852256
21
2943.07143411871
31
0
0
LINE
8
Základní_vrstva
62
3
10
2656.33541852256
20
2943.07143411871
30
0
11
2656.54541852256
21
2943.08943411871
31
0
0
LINE
8
Základní_vrstva
62
3
10
2656.54541852256
20
2943.08943411871
30
0
11
2656.73741852256
21
2943.03543411871
31
0
0
LINE
8
Základní_vrstva
62
3
10
2656.73741852256
20
2943.03543411871
30
0
11
2656.94741852256
21
2943.01743411871
31
0
0
LINE
8
Základní_vrstva
62
3
10
2656.94741852256
20
2943.01743411871
30
0
11
2657.11541852256
21
2943.13143411871
31
0
0
LINE
8
Základní_vrstva
62
3
10
2657.11541852256
20
2943.13143411871
30
0
11
2657.25341852256
21
2943.27543411871
31
0
0
LINE
8
Základní_vrstva
62
3
10
2657.25341852256
20
2943.27543411871
30
0
11
2657.43941852256
21
2943.35943411871
31
0
0
LINE
8
Základní_vrstva
62
3
10
2657.43941852256
20
2943.35943411871
30
0
11
2657.61341852256
21
2943.48543411871
31
0
0
LINE
8
Základní_vrstva
62
3
10
2657.61341852256
20
2943.48543411871
30
0
11
2657.67341852256
21
2943.68943411871
31
0
0
LINE
8
Základní_vrstva
62
3
10
2657.67341852256
20
2943.68943411871
30
0
11
2657.68541852256
21
2943.89343411871
31
0
0
LINE
8
Základní_vrstva
62
3
10
2657.68541852256
20
2943.89343411871
30
0
11
2657.76941852256
21
2944.08543411871
31
0
0
LINE
8
Základní_vrstva
62
3
10
2657.76941852256
20
2944.08543411871
30
0
11
2657.82341852256
21
2944.25943411871
31
0
0
CIRCLE
8
Základní_vrstva
62
3
10
2656.64141852256
20
2944.16343411871
30
0
40
0.0999999999999091
0
LINE
8
Základní_vrstva
62
3
10
2662.97679352256
20
2945.74771536871
30
0
11
2662.90479352256
21
2945.91571536871
31
0
0
LINE
8
Základní_vrstva
62
3
10
2662.90479352256
20
2945.91571536871
30
0
11
2662.78479352256
21
2946.10171536871
31
0
0
LINE
8
Základní_vrstva
62
3
10
2662.78479352256
20
2946.10171536871
30
0
11
2662.73079352256
21
2946.30571536871
31
0
0
LINE
8
Základní_vrstva
62
3
10
2662.73079352256
20
2946.30571536871
30
0
11
2662.64679352256
21
2946.48571536871
31
0
0
LINE
8
Základní_vrstva
62
3
10
2662.64679352256
20
2946.48571536871
30
0
11
2662.45479352256
21
2946.58171536871
31
0
0
LINE
8
Základní_vrstva
62
3
10
2662.45479352256
20
2946.58171536871
30
0
11
2662.25679352256
21
2946.63571536871
31
0
0
LINE
8
Základní_vrstva
62
3
10
2662.25679352256
20
2946.63571536871
30
0
11
2662.09479352256
21
2946.74971536871
31
0
0
LINE
8
Základní_vrstva
62
3
10
2662.09479352256
20
2946.74971536871
30
0
11
2661.90879352256
21
2946.83371536871
31
0
0
LINE
8
Základní_vrstva
62
3
10
2661.90879352256
20
2946.83371536871
30
0
11
2661.71079352256
21
2946.77971536871
31
0
0
LINE
8
Základní_vrstva
62
3
10
2661.71079352256
20
2946.77971536871
30
0
11
2661.53679352256
21
2946.69571536871
31
0
0
LINE
8
Základní_vrstva
62
3
10
2661.53679352256
20
2946.69571536871
30
0
11
2661.33279352256
21
2946.67771536871
31
0
0
LINE
8
Základní_vrstva
62
3
10
2661.33279352256
20
2946.67771536871
30
0
11
2661.12879352256
21
2946.62971536871
31
0
0
LINE
8
Základní_vrstva
62
3
10
2661.12879352256
20
2946.62971536871
30
0
11
2661.00279352256
21
2946.45571536871
31
0
0
LINE
8
Základní_vrstva
62
3
10
2661.00279352256
20
2946.45571536871
30
0
11
2660.91279352256
21
2946.26971536871
31
0
0
LINE
8
Základní_vrstva
62
3
10
2660.91279352256
20
2946.26971536871
30
0
11
2660.77479352256
21
2946.13171536871
31
0
0
LINE
8
Základní_vrstva
62
3
10
2660.77479352256
20
2946.13171536871
30
0
11
2660.65479352256
21
2945.94571536871
31
0
0
LINE
8
Základní_vrstva
62
3
10
2660.65479352256
20
2945.94571536871
30
0
11
2660.67279352256
21
2945.74171536871
31
0
0
LINE
8
Základní_vrstva
62
3
10
2660.67279352256
20
2945.74171536871
30
0
11
2660.72679352256
21
2945.55571536871
31
0
0
LINE
8
Základní_vrstva
62
3
10
2660.72679352256
20
2945.55571536871
30
0
11
2660.70279352256
21
2945.35771536871
31
0
0
LINE
8
Základní_vrstva
62
3
10
2660.70279352256
20
2945.35771536871
30
0
11
2660.72079352256
21
2945.15371536871
31
0
0
LINE
8
Základní_vrstva
62
3
10
2660.72079352256
20
2945.15371536871
30
0
11
2660.87079352256
21
2944.99771536871
31
0
0
LINE
8
Základní_vrstva
62
3
10
2660.87079352256
20
2944.99771536871
30
0
11
2661.04479352256
21
2944.87771536871
31
0
0
LINE
8
Základní_vrstva
62
3
10
2661.04479352256
20
2944.87771536871
30
0
11
2661.15879352256
21
2944.71571536871
31
0
0
LINE
8
Základní_vrstva
62
3
10
2661.15879352256
20
2944.71571536871
30
0
11
2661.29079352256
21
2944.57771536871
31
0
0
LINE
8
Základní_vrstva
62
3
10
2661.29079352256
20
2944.57771536871
30
0
11
2661.49479352256
21
2944.55971536871
31
0
0
LINE
8
Základní_vrstva
62
3
10
2661.49479352256
20
2944.55971536871
30
0
11
2661.70479352256
21
2944.57771536871
31
0
0
LINE
8
Základní_vrstva
62
3
10
2661.70479352256
20
2944.57771536871
30
0
11
2661.89679352256
21
2944.52371536871
31
0
0
LINE
8
Základní_vrstva
62
3
10
2661.89679352256
20
2944.52371536871
30
0
11
2662.10679352256
21
2944.50571536871
31
0
0
LINE
8
Základní_vrstva
62
3
10
2662.10679352256
20
2944.50571536871
30
0
11
2662.27479352256
21
2944.61971536871
31
0
0
LINE
8
Základní_vrstva
62
3
10
2662.27479352256
20
2944.61971536871
30
0
11
2662.41279352256
21
2944.76371536871
31
0
0
LINE
8
Základní_vrstva
62
3
10
2662.41279352256
20
2944.76371536871
30
0
11
2662.59879352256
21
2944.84771536871
31
0
0
LINE
8
Základní_vrstva
62
3
10
2662.59879352256
20
2944.84771536871
30
0
11
2662.77279352256
21
2944.97371536871
31
0
0
LINE
8
Základní_vrstva
62
3
10
2662.77279352256
20
2944.97371536871
30
0
11
2662.83279352256
21
2945.17771536871
31
0
0
LINE
8
Základní_vrstva
62
3
10
2662.83279352256
20
2945.17771536871
30
0
11
2662.84479352256
21
2945.38171536871
31
0
0
LINE
8
Základní_vrstva
62
3
10
2662.84479352256
20
2945.38171536871
30
0
11
2662.92879352256
21
2945.57371536871
31
0
0
LINE
8
Základní_vrstva
62
3
10
2662.92879352256
20
2945.57371536871
30
0
11
2662.98279352256
21
2945.74771536871
31
0
0
CIRCLE
8
Základní_vrstva
62
3
10
2661.80079352256
20
2945.65171536871
30
0
40
0.0999999999999091
0
LINE
8
Základní_vrstva
62
3
10
2668.23538727256
20
2947.13677786871
30
0
11
2668.16338727256
21
2947.30477786871
31
0
0
LINE
8
Základní_vrstva
62
3
10
2668.16338727256
20
2947.30477786871
30
0
11
2668.04338727256
21
2947.49077786871
31
0
0
LINE
8
Základní_vrstva
62
3
10
2668.04338727256
20
2947.49077786871
30
0
11
2667.98938727256
21
2947.69477786871
31
0
0
LINE
8
Základní_vrstva
62
3
10
2667.98938727256
20
2947.69477786871
30
0
11
2667.90538727256
21
2947.87477786871
31
0
0
LINE
8
Základní_vrstva
62
3
10
2667.90538727256
20
2947.87477786871
30
0
11
2667.71338727256
21
2947.97077786871
31
0
0
LINE
8
Základní_vrstva
62
3
10
2667.71338727256
20
2947.97077786871
30
0
11
2667.51538727256
21
2948.02477786871
31
0
0
LINE
8
Základní_vrstva
62
3
10
2667.51538727256
20
2948.02477786871
30
0
11
2667.35338727256
21
2948.13877786871
31
0
0
LINE
8
Základní_vrstva
62
3
10
2667.35338727256
20
2948.13877786871
30
0
11
2667.16738727256
21
2948.22277786871
31
0
0
LINE
8
Základní_vrstva
62
3
10
2667.16738727256
20
2948.22277786871
30
0
11
2666.96938727256
21
2948.16877786871
31
0
0
LINE
8
Základní_vrstva
62
3
10
2666.96938727256
20
2948.16877786871
30
0
11
2666.79538727256
21
2948.08477786871
31
0
0
LINE
8
Základní_vrstva
62
3
10
2666.79538727256
20
2948.08477786871
30
0
11
2666.59138727256
21
2948.06677786871
31
0
0
LINE
8
Základní_vrstva
62
3
10
2666.59138727256
20
2948.06677786871
30
0
11
2666.38738727256
21
2948.01877786871
31
0
0
LINE
8
Základní_vrstva
62
3
10
2666.38738727256
20
2948.01877786871
30
0
11
2666.26138727256
21
2947.84477786871
31
0
0
LINE
8
Základní_vrstva
62
3
10
2666.26138727256
20
2947.84477786871
30
0
11
2666.17138727256
21
2947.65877786871
31
0
0
LINE
8
Základní_vrstva
62
3
10
2666.17138727256
20
2947.65877786871
30
0
11
2666.03338727256
21
2947.52077786871
31
0
0
LINE
8
Základní_vrstva
62
3
10
2666.03338727256
20
2947.52077786871
30
0
11
2665.91338727256
21
2947.33477786871
31
0
0
LINE
8
Základní_vrstva
62
3
10
2665.91338727256
20
2947.33477786871
30
0
11
2665.93138727256
21
2947.13077786871
31
0
0
LINE
8
Základní_vrstva
62
3
10
2665.93138727256
20
2947.13077786871
30
0
11
2665.98538727256
21
2946.94477786871
31
0
0
LINE
8
Základní_vrstva
62
3
10
2665.98538727256
20
2946.94477786871
30
0
11
2665.96138727256
21
2946.74677786871
31
0
0
LINE
8
Základní_vrstva
62
3
10
2665.96138727256
20
2946.74677786871
30
0
11
2665.97938727256
21
2946.54277786871
31
0
0
LINE
8
Základní_vrstva
62
3
10
2665.97938727256
20
2946.54277786871
30
0
11
2666.12938727256
21
2946.38677786871
31
0
0
LINE
8
Základní_vrstva
62
3
10
2666.12938727256
20
2946.38677786871
30
0
11
2666.30338727256
21
2946.26677786871
31
0
0
LINE
8
Základní_vrstva
62
3
10
2666.30338727256
20
2946.26677786871
30
0
11
2666.41738727256
21
2946.10477786871
31
0
0
LINE
8
Základní_vrstva
62
3
10
2666.41738727256
20
2946.10477786871
30
0
11
2666.54938727256
21
2945.96677786871
31
0
0
LINE
8
Základní_vrstva
62
3
10
2666.54938727256
20
2945.96677786871
30
0
11
2666.75338727256
21
2945.94877786871
31
0
0
LINE
8
Základní_vrstva
62
3
10
2666.75338727256
20
2945.94877786871
30
0
11
2666.96338727256
21
2945.96677786871
31
0
0
LINE
8
Základní_vrstva
62
3
10
2666.96338727256
20
2945.96677786871
30
0
11
2667.15538727256
21
2945.91277786871
31
0
0
LINE
8
Základní_vrstva
62
3
10
2667.15538727256
20
2945.91277786871
30
0
11
2667.36538727256
21
2945.89477786871
31
0
0
LINE
8
Základní_vrstva
62
3
10
2667.36538727256
20
2945.89477786871
30
0
11
2667.53338727256
21
2946.00877786871
31
0
0
LINE
8
Základní_vrstva
62
3
10
2667.53338727256
20
2946.00877786871
30
0
11
2667.67138727256
21
2946.15277786871
31
0
0
LINE
8
Základní_vrstva
62
3
10
2667.67138727256
20
2946.15277786871
30
0
11
2667.85738727256
21
2946.23677786871
31
0
0
LINE
8
Základní_vrstva
62
3
10
2667.85738727256
20
2946.23677786871
30
0
11
2668.03138727256
21
2946.36277786871
31
0
0
LINE
8
Základní_vrstva
62
3
10
2668.03138727256
20
2946.36277786871
30
0
11
2668.09138727256
21
2946.56677786871
31
0
0
LINE
8
Základní_vrstva
62
3
10
2668.09138727256
20
2946.56677786871
30
0
11
2668.10338727256
21
2946.77077786871
31
0
0
LINE
8
Základní_vrstva
62
3
10
2668.10338727256
20
2946.77077786871
30
0
11
2668.18738727256
21
2946.96277786871
31
0
0
LINE
8
Základní_vrstva
62
3
10
2668.18738727256
20
2946.96277786871
30
0
11
2668.24138727256
21
2947.13677786871
31
0
0
CIRCLE
8
Základní_vrstva
62
3
10
2667.05938727256
20
2947.04077786871
30
0
40
0.0999999999999091
0
LINE
8
Základní_vrstva
62
3
10
2673.39476227256
20
2948.72427786871
30
0
11
2673.32276227256
21
2948.89227786871
31
0
0
LINE
8
Základní_vrstva
62
3
10
2673.32276227256
20
2948.89227786871
30
0
11
2673.20276227256
21
2949.07827786871
31
0
0
LINE
8
Základní_vrstva
62
3
10
2673.20276227256
20
2949.07827786871
30
0
11
2673.14876227256
21
2949.28227786871
31
0
0
LINE
8
Základní_vrstva
62
3
10
2673.14876227256
20
2949.28227786871
30
0
11
2673.06476227256
21
2949.46227786871
31
0
0
LINE
8
Základní_vrstva
62
3
10
2673.06476227256
20
2949.46227786871
30
0
11
2672.87276227256
21
2949.55827786871
31
0
0
LINE
8
Základní_vrstva
62
3
10
2672.87276227256
20
2949.55827786871
30
0
11
2672.67476227256
21
2949.61227786871
31
0
0
LINE
8
Základní_vrstva
62
3
10
2672.67476227256
20
2949.61227786871
30
0
11
2672.51276227256
21
2949.72627786871
31
0
0
LINE
8
Základní_vrstva
62
3
10
2672.51276227256
20
2949.72627786871
30
0
11
2672.32676227256
21
2949.81027786871
31
0
0
LINE
8
Základní_vrstva
62
3
10
2672.32676227256
20
2949.81027786871
30
0
11
2672.12876227256
21
2949.75627786871
31
0
0
LINE
8
Základní_vrstva
62
3
10
2672.12876227256
20
2949.75627786871
30
0
11
2671.95476227256
21
2949.67227786871
31
0
0
LINE
8
Základní_vrstva
62
3
10
2671.95476227256
20
2949.67227786871
30
0
11
2671.75076227256
21
2949.65427786871
31
0
0
LINE
8
Základní_vrstva
62
3
10
2671.75076227256
20
2949.65427786871
30
0
11
2671.54676227256
21
2949.60627786871
31
0
0
LINE
8
Základní_vrstva
62
3
10
2671.54676227256
20
2949.60627786871
30
0
11
2671.42076227256
21
2949.43227786871
31
0
0
LINE
8
Základní_vrstva
62
3
10
2671.42076227256
20
2949.43227786871
30
0
11
2671.33076227256
21
2949.24627786871
31
0
0
LINE
8
Základní_vrstva
62
3
10
2671.33076227256
20
2949.24627786871
30
0
11
2671.19276227256
21
2949.10827786871
31
0
0
LINE
8
Základní_vrstva
62
3
10
2671.19276227256
20
2949.10827786871
30
0
11
2671.07276227256
21
2948.92227786871
31
0
0
LINE
8
Základní_vrstva
62
3
10
2671.07276227256
20
2948.92227786871
30
0
11
2671.09076227256
21
2948.71827786871
31
0
0
LINE
8
Základní_vrstva
62
3
10
2671.09076227256
20
2948.71827786871
30
0
11
2671.14476227256
21
2948.53227786871
31
0
0
LINE
8
Základní_vrstva
62
3
10
2671.14476227256
20
2948.53227786871
30
0
11
2671.12076227256
21
2948.33427786871
31
0
0
LINE
8
Základní_vrstva
62
3
10
2671.12076227256
20
2948.33427786871
30
0
11
2671.13876227256
21
2948.13027786871
31
0
0
LINE
8
Základní_vrstva
62
3
10
2671.13876227256
20
2948.13027786871
30
0
11
2671.28876227256
21
2947.97427786871
31
0
0
LINE
8
Základní_vrstva
62
3
10
2671.28876227256
20
2947.97427786871
30
0
11
2671.46276227256
21
2947.85427786871
31
0
0
LINE
8
Základní_vrstva
62
3
10
2671.46276227256
20
2947.85427786871
30
0
11
2671.57676227256
21
2947.69227786871
31
0
0
LINE
8
Základní_vrstva
62
3
10
2671.57676227256
20
2947.69227786871
30
0
11
2671.70876227256
21
2947.55427786871
31
0
0
LINE
8
Základní_vrstva
62
3
10
2671.70876227256
20
2947.55427786871
30
0
11
2671.91276227256
21
2947.53627786871
31
0
0
LINE
8
Základní_vrstva
62
3
10
2671.91276227256
20
2947.53627786871
30
0
11
2672.12276227256
21
2947.55427786871
31
0
0
LINE
8
Základní_vrstva
62
3
10
2672.12276227256
20
2947.55427786871
30
0
11
2672.31476227256
21
2947.50027786871
31
0
0
LINE
8
Základní_vrstva
62
3
10
2672.31476227256
20
2947.50027786871
30
0
11
2672.52476227256
21
2947.48227786871
31
0
0
LINE
8
Základní_vrstva
62
3
10
2672.52476227256
20
2947.48227786871
30
0
11
2672.69276227256
21
2947.59627786871
31
0
0
LINE
8
Základní_vrstva
62
3
10
2672.69276227256
20
2947.59627786871
30
0
11
2672.83076227256
21
2947.74027786871
31
0
0
LINE
8
Základní_vrstva
62
3
10
2672.83076227256
20
2947.74027786871
30
0
11
2673.01676227256
21
2947.82427786871
31
0
0
LINE
8
Základní_vrstva
62
3
10
2673.01676227256
20
2947.82427786871
30
0
11
2673.19076227256
21
2947.95027786871
31
0
0
LINE
8
Základní_vrstva
62
3
10
2673.19076227256
20
2947.95027786871
30
0
11
2673.25076227256
21
2948.15427786871
31
0
0
LINE
8
Základní_vrstva
62
3
10
2673.25076227256
20
2948.15427786871
30
0
11
2673.26276227256
21
2948.35827786871
31
0
0
LINE
8
Základní_vrstva
62
3
10
2673.26276227256
20
2948.35827786871
30
0
11
2673.34676227256
21
2948.55027786871
31
0
0
LINE
8
Základní_vrstva
62
3
10
2673.34676227256
20
2948.55027786871
30
0
11
2673.40076227256
21
2948.72427786871
31
0
0
CIRCLE
8
Základní_vrstva
62
3
10
2672.21876227256
20
2948.62827786871
30
0
40
0.0999999999999091
0
LINE
8
Základní_vrstva
62
3
10
2678.75257477256
20
2950.21255911871
30
0
11
2678.68057477256
21
2950.38055911871
31
0
0
LINE
8
Základní_vrstva
62
3
10
2678.68057477256
20
2950.38055911871
30
0
11
2678.56057477256
21
2950.56655911871
31
0
0
LINE
8
Základní_vrstva
62
3
10
2678.56057477256
20
2950.56655911871
30
0
11
2678.50657477256
21
2950.77055911871
31
0
0
LINE
8
Základní_vrstva
62
3
10
2678.50657477256
20
2950.77055911871
30
0
11
2678.42257477256
21
2950.95055911871
31
0
0
LINE
8
Základní_vrstva
62
3
10
2678.42257477256
20
2950.95055911871
30
0
11
2678.23057477256
21
2951.04655911871
31
0
0
LINE
8
Základní_vrstva
62
3
10
2678.23057477256
20
2951.04655911871
30
0
11
2678.03257477256
21
2951.10055911871
31
0
0
LINE
8
Základní_vrstva
62
3
10
2678.03257477256
20
2951.10055911871
30
0
11
2677.87057477256
21
2951.21455911871
31
0
0
LINE
8
Základní_vrstva
62
3
10
2677.87057477256
20
2951.21455911871
30
0
11
2677.68457477256
21
2951.29855911871
31
0
0
LINE
8
Základní_vrstva
62
3
10
2677.68457477256
20
2951.29855911871
30
0
11
2677.48657477256
21
2951.24455911871
31
0
0
LINE
8
Základní_vrstva
62
3
10
2677.48657477256
20
2951.24455911871
30
0
11
2677.31257477256
21
2951.16055911871
31
0
0
LINE
8
Základní_vrstva
62
3
10
2677.31257477256
20
2951.16055911871
30
0
11
2677.10857477256
21
2951.14255911871
31
0
0
LINE
8
Základní_vrstva
62
3
10
2677.10857477256
20
2951.14255911871
30
0
11
2676.90457477256
21
2951.09455911871
31
0
0
LINE
8
Základní_vrstva
62
3
10
2676.90457477256
20
2951.09455911871
30
0
11
2676.77857477256
21
2950.92055911871
31
0
0
LINE
8
Základní_vrstva
62
3
10
2676.77857477256
20
2950.92055911871
30
0
11
2676.68857477256
21
2950.73455911871
31
0
0
LINE
8
Základní_vrstva
62
3
10
2676.68857477256
20
2950.73455911871
30
0
11
2676.55057477256
21
2950.59655911871
31
0
0
LINE
8
Základní_vrstva
62
3
10
2676.55057477256
20
2950.59655911871
30
0
11
2676.43057477256
21
2950.41055911871
31
0
0
LINE
8
Základní_vrstva
62
3
10
2676.43057477256
20
2950.41055911871
30
0
11
2676.44857477256
21
2950.20655911871
31
0
0
LINE
8
Základní_vrstva
62
3
10
2676.44857477256
20
2950.20655911871
30
0
11
2676.50257477256
21
2950.02055911871
31
0
0
LINE
8
Základní_vrstva
62
3
10
2676.50257477256
20
2950.02055911871
30
0
11
2676.47857477256
21
2949.82255911871
31
0
0
LINE
8
Základní_vrstva
62
3
10
2676.47857477256
20
2949.82255911871
30
0
11
2676.49657477256
21
2949.61855911871
31
0
0
LINE
8
Základní_vrstva
62
3
10
2676.49657477256
20
2949.61855911871
30
0
11
2676.64657477256
21
2949.46255911871
31
0
0
LINE
8
Základní_vrstva
62
3
10
2676.64657477256
20
2949.46255911871
30
0
11
2676.82057477256
21
2949.34255911871
31
0
0
LINE
8
Základní_vrstva
62
3
10
2676.82057477256
20
2949.34255911871
30
0
11
2676.93457477256
21
2949.18055911871
31
0
0
LINE
8
Základní_vrstva
62
3
10
2676.93457477256
20
2949.18055911871
30
0
11
2677.06657477256
21
2949.04255911871
31
0
0
LINE
8
Základní_vrstva
62
3
10
2677.06657477256
20
2949.04255911871
30
0
11
2677.27057477256
21
2949.02455911871
31
0
0
LINE
8
Základní_vrstva
62
3
10
2677.27057477256
20
2949.02455911871
30
0
11
2677.48057477256
21
2949.04255911871
31
0
0
LINE
8
Základní_vrstva
62
3
10
2677.48057477256
20
2949.04255911871
30
0
11
2677.67257477256
21
2948.98855911871
31
0
0
LINE
8
Základní_vrstva
62
3
10
2677.67257477256
20
2948.98855911871
30
0
11
2677.88257477256
21
2948.97055911871
31
0
0
LINE
8
Základní_vrstva
62
3
10
2677.88257477256
20
2948.97055911871
30
0
11
2678.05057477256
21
2949.08455911871
31
0
0
LINE
8
Základní_vrstva
62
3
10
2678.05057477256
20
2949.08455911871
30
0
11
2678.18857477256
21
2949.22855911871
31
0
0
LINE
8
Základní_vrstva
62
3
10
2678.18857477256
20
2949.22855911871
30
0
11
2678.37457477256
21
2949.31255911871
31
0
0
LINE
8
Základní_vrstva
62
3
10
2678.37457477256
20
2949.31255911871
30
0
11
2678.54857477256
21
2949.43855911871
31
0
0
LINE
8
Základní_vrstva
62
3
10
2678.54857477256
20
2949.43855911871
30
0
11
2678.60857477256
21
2949.64255911871
31
0
0
LINE
8
Základní_vrstva
62
3
10
2678.60857477256
20
2949.64255911871
30
0
11
2678.62057477256
21
2949.84655911871
31
0
0
LINE
8
Základní_vrstva
62
3
10
2678.62057477256
20
2949.84655911871
30
0
11
2678.70457477256
21
2950.03855911871
31
0
0
LINE
8
Základní_vrstva
62
3
10
2678.70457477256
20
2950.03855911871
30
0
11
2678.75857477256
21
2950.21255911871
31
0
0
CIRCLE
8
Základní_vrstva
62
3
10
2677.57657477256
20
2950.11655911871
30
0
40
0.0999999999999091
0
LINE
8
Základní_vrstva
62
3
10
2683.31663727256
20
2951.50240286871
30
0
11
2683.24463727256
21
2951.67040286871
31
0
0
LINE
8
Základní_vrstva
62
3
10
2683.24463727256
20
2951.67040286871
30
0
11
2683.12463727256
21
2951.85640286871
31
0
0
LINE
8
Základní_vrstva
62
3
10
2683.12463727256
20
2951.85640286871
30
0
11
2683.07063727256
21
2952.06040286871
31
0
0
LINE
8
Základní_vrstva
62
3
10
2683.07063727256
20
2952.06040286871
30
0
11
2682.98663727256
21
2952.24040286871
31
0
0
LINE
8
Základní_vrstva
62
3
10
2682.98663727256
20
2952.24040286871
30
0
11
2682.79463727256
21
2952.33640286871
31
0
0
LINE
8
Základní_vrstva
62
3
10
2682.79463727256
20
2952.33640286871
30
0
11
2682.59663727256
21
2952.39040286871
31
0
0
LINE
8
Základní_vrstva
62
3
10
2682.59663727256
20
2952.39040286871
30
0
11
2682.43463727256
21
2952.50440286871
31
0
0
LINE
8
Základní_vrstva
62
3
10
2682.43463727256
20
2952.50440286871
30
0
11
2682.24863727256
21
2952.58840286871
31
0
0
LINE
8
Základní_vrstva
62
3
10
2682.24863727256
20
2952.58840286871
30
0
11
2682.05063727256
21
2952.53440286871
31
0
0
LINE
8
Základní_vrstva
62
3
10
2682.05063727256
20
2952.53440286871
30
0
11
2681.87663727256
21
2952.45040286871
31
0
0
LINE
8
Základní_vrstva
62
3
10
2681.87663727256
20
2952.45040286871
30
0
11
2681.67263727256
21
2952.43240286871
31
0
0
LINE
8
Základní_vrstva
62
3
10
2681.67263727256
20
2952.43240286871
30
0
11
2681.46863727256
21
2952.38440286871
31
0
0
LINE
8
Základní_vrstva
62
3
10
2681.46863727256
20
2952.38440286871
30
0
11
2681.34263727256
21
2952.21040286871
31
0
0
LINE
8
Základní_vrstva
62
3
10
2681.34263727256
20
2952.21040286871
30
0
11
2681.25263727256
21
2952.02440286871
31
0
0
LINE
8
Základní_vrstva
62
3
10
2681.25263727256
20
2952.02440286871
30
0
11
2681.11463727256
21
2951.88640286871
31
0
0
LINE
8
Základní_vrstva
62
3
10
2681.11463727256
20
2951.88640286871
30
0
11
2680.99463727256
21
2951.70040286871
31
0
0
LINE
8
Základní_vrstva
62
3
10
2680.99463727256
20
2951.70040286871
30
0
11
2681.01263727256
21
2951.49640286871
31
0
0
LINE
8
Základní_vrstva
62
3
10
2681.01263727256
20
2951.49640286871
30
0
11
2681.06663727256
21
2951.31040286871
31
0
0
LINE
8
Základní_vrstva
62
3
10
2681.06663727256
20
2951.31040286871
30
0
11
2681.04263727256
21
2951.11240286871
31
0
0
LINE
8
Základní_vrstva
62
3
10
2681.04263727256
20
2951.11240286871
30
0
11
2681.06063727256
21
2950.90840286871
31
0
0
LINE
8
Základní_vrstva
62
3
10
2681.06063727256
20
2950.90840286871
30
0
11
2681.21063727256
21
2950.75240286871
31
0
0
LINE
8
Základní_vrstva
62
3
10
2681.21063727256
20
2950.75240286871
30
0
11
2681.38463727256
21
2950.63240286871
31
0
0
LINE
8
Základní_vrstva
62
3
10
2681.38463727256
20
2950.63240286871
30
0
11
2681.49863727256
21
2950.47040286871
31
0
0
LINE
8
Základní_vrstva
62
3
10
2681.49863727256
20
2950.47040286871
30
0
11
2681.63063727256
21
2950.33240286871
31
0
0
LINE
8
Základní_vrstva
62
3
10
2681.63063727256
20
2950.33240286871
30
0
11
2681.83463727256
21
2950.31440286871
31
0
0
LINE
8
Základní_vrstva
62
3
10
2681.83463727256
20
2950.31440286871
30
0
11
2682.04463727256
21
2950.33240286871
31
0
0
LINE
8
Základní_vrstva
62
3
10
2682.04463727256
20
2950.33240286871
30
0
11
2682.23663727256
21
2950.27840286871
31
0
0
LINE
8
Základní_vrstva
62
3
10
2682.23663727256
20
2950.27840286871
30
0
11
2682.44663727256
21
2950.26040286871
31
0
0
LINE
8
Základní_vrstva
62
3
10
2682.44663727256
20
2950.26040286871
30
0
11
2682.61463727256
21
2950.37440286871
31
0
0
LINE
8
Základní_vrstva
62
3
10
2682.61463727256
20
2950.37440286871
30
0
11
2682.75263727256
21
2950.51840286871
31
0
0
LINE
8
Základní_vrstva
62
3
10
2682.75263727256
20
2950.51840286871
30
0
11
2682.93863727256
21
2950.60240286871
31
0
0
LINE
8
Základní_vrstva
62
3
10
2682.93863727256
20
2950.60240286871
30
0
11
2683.11263727256
21
2950.72840286871
31
0
0
LINE
8
Základní_vrstva
62
3
10
2683.11263727256
20
2950.72840286871
30
0
11
2683.17263727256
21
2950.93240286871
31
0
0
LINE
8
Základní_vrstva
62
3
10
2683.17263727256
20
2950.93240286871
30
0
11
2683.18463727256
21
2951.13640286871
31
0
0
LINE
8
Základní_vrstva
62
3
10
2683.18463727256
20
2951.13640286871
30
0
11
2683.26863727256
21
2951.32840286871
31
0
0
LINE
8
Základní_vrstva
62
3
10
2683.26863727256
20
2951.32840286871
30
0
11
2683.32263727256
21
2951.50240286871
31
0
0
CIRCLE
8
Základní_vrstva
62
3
10
2682.14063727256
20
2951.40640286871
30
0
40
0.0999999999999091
0
LINE
8
Základní_vrstva
62
3
10
2687.97991852256
20
2952.79224661871
30
0
11
2687.90791852256
21
2952.96024661871
31
0
0
LINE
8
Základní_vrstva
62
3
10
2687.90791852256
20
2952.96024661871
30
0
11
2687.78791852256
21
2953.14624661871
31
0
0
LINE
8
Základní_vrstva
62
3
10
2687.78791852256
20
2953.14624661871
30
0
11
2687.73391852256
21
2953.35024661871
31
0
0
LINE
8
Základní_vrstva
62
3
10
2687.73391852256
20
2953.35024661871
30
0
11
2687.64991852256
21
2953.53024661871
31
0
0
LINE
8
Základní_vrstva
62
3
10
2687.64991852256
20
2953.53024661871
30
0
11
2687.45791852256
21
2953.62624661871
31
0
0
LINE
8
Základní_vrstva
62
3
10
2687.45791852256
20
2953.62624661871
30
0
11
2687.25991852256
21
2953.68024661871
31
0
0
LINE
8
Základní_vrstva
62
3
10
2687.25991852256
20
2953.68024661871
30
0
11
2687.09791852256
21
2953.79424661871
31
0
0
LINE
8
Základní_vrstva
62
3
10
2687.09791852256
20
2953.79424661871
30
0
11
2686.91191852256
21
2953.87824661871
31
0
0
LINE
8
Základní_vrstva
62
3
10
2686.91191852256
20
2953.87824661871
30
0
11
2686.71391852256
21
2953.82424661871
31
0
0
LINE
8
Základní_vrstva
62
3
10
2686.71391852256
20
2953.82424661871
30
0
11
2686.53991852256
21
2953.74024661871
31
0
0
LINE
8
Základní_vrstva
62
3
10
2686.53991852256
20
2953.74024661871
30
0
11
2686.33591852256
21
2953.72224661871
31
0
0
LINE
8
Základní_vrstva
62
3
10
2686.33591852256
20
2953.72224661871
30
0
11
2686.13191852256
21
2953.67424661871
31
0
0
LINE
8
Základní_vrstva
62
3
10
2686.13191852256
20
2953.67424661871
30
0
11
2686.00591852256
21
2953.50024661871
31
0
0
LINE
8
Základní_vrstva
62
3
10
2686.00591852256
20
2953.50024661871
30
0
11
2685.91591852256
21
2953.31424661871
31
0
0
LINE
8
Základní_vrstva
62
3
10
2685.91591852256
20
2953.31424661871
30
0
11
2685.77791852256
21
2953.17624661871
31
0
0
LINE
8
Základní_vrstva
62
3
10
2685.77791852256
20
2953.17624661871
30
0
11
2685.65791852256
21
2952.99024661871
31
0
0
LINE
8
Základní_vrstva
62
3
10
2685.65791852256
20
2952.99024661871
30
0
11
2685.67591852256
21
2952.78624661871
31
0
0
LINE
8
Základní_vrstva
62
3
10
2685.67591852256
20
2952.78624661871
30
0
11
2685.72991852256
21
2952.60024661871
31
0
0
LINE
8
Základní_vrstva
62
3
10
2685.72991852256
20
2952.60024661871
30
0
11
2685.70591852256
21
2952.40224661871
31
0
0
LINE
8
Základní_vrstva
62
3
10
2685.70591852256
20
2952.40224661871
30
0
11
2685.72391852256
21
2952.19824661871
31
0
0
LINE
8
Základní_vrstva
62
3
10
2685.72391852256
20
2952.19824661871
30
0
11
2685.87391852256
21
2952.04224661871
31
0
0
LINE
8
Základní_vrstva
62
3
10
2685.87391852256
20
2952.04224661871
30
0
11
2686.04791852256
21
2951.92224661871
31
0
0
LINE
8
Základní_vrstva
62
3
10
2686.04791852256
20
2951.92224661871
30
0
11
2686.16191852256
21
2951.76024661871
31
0
0
LINE
8
Základní_vrstva
62
3
10
2686.16191852256
20
2951.76024661871
30
0
11
2686.29391852256
21
2951.62224661871
31
0
0
LINE
8
Základní_vrstva
62
3
10
2686.29391852256
20
2951.62224661871
30
0
11
2686.49791852256
21
2951.60424661871
31
0
0
LINE
8
Základní_vrstva
62
3
10
2686.49791852256
20
2951.60424661871
30
0
11
2686.70791852256
21
2951.62224661871
31
0
0
LINE
8
Základní_vrstva
62
3
10
2686.70791852256
20
2951.62224661871
30
0
11
2686.89991852256
21
2951.56824661871
31
0
0
LINE
8
Základní_vrstva
62
3
10
2686.89991852256
20
2951.56824661871
30
0
11
2687.10991852256
21
2951.55024661871
31
0
0
LINE
8
Základní_vrstva
62
3
10
2687.10991852256
20
2951.55024661871
30
0
11
2687.27791852256
21
2951.66424661871
31
0
0
LINE
8
Základní_vrstva
62
3
10
2687.27791852256
20
2951.66424661871
30
0
11
2687.41591852256
21
2951.80824661871
31
0
0
LINE
8
Základní_vrstva
62
3
10
2687.41591852256
20
2951.80824661871
30
0
11
2687.60191852256
21
2951.89224661871
31
0
0
LINE
8
Základní_vrstva
62
3
10
2687.60191852256
20
2951.89224661871
30
0
11
2687.77591852256
21
2952.01824661871
31
0
0
LINE
8
Základní_vrstva
62
3
10
2687.77591852256
20
2952.01824661871
30
0
11
2687.83591852256
21
2952.22224661871
31
0
0
LINE
8
Základní_vrstva
62
3
10
2687.83591852256
20
2952.22224661871
30
0
11
2687.84791852256
21
2952.42624661871
31
0
0
LINE
8
Základní_vrstva
62
3
10
2687.84791852256
20
2952.42624661871
30
0
11
2687.93191852256
21
2952.61824661871
31
0
0
LINE
8
Základní_vrstva
62
3
10
2687.93191852256
20
2952.61824661871
30
0
11
2687.98591852256
21
2952.79224661871
31
0
0
CIRCLE
8
Základní_vrstva
62
3
10
2686.80391852256
20
2952.69624661871
30
0
40
0.0999999999999091
0
LINE
8
Základní_vrstva
62
3
10
2692.64319977256
20
2954.28052786871
30
0
11
2692.57119977256
21
2954.44852786871
31
0
0
LINE
8
Základní_vrstva
62
3
10
2692.57119977256
20
2954.44852786871
30
0
11
2692.45119977256
21
2954.63452786871
31
0
0
LINE
8
Základní_vrstva
62
3
10
2692.45119977256
20
2954.63452786871
30
0
11
2692.39719977256
21
2954.83852786871
31
0
0
LINE
8
Základní_vrstva
62
3
10
2692.39719977256
20
2954.83852786871
30
0
11
2692.31319977256
21
2955.01852786871
31
0
0
LINE
8
Základní_vrstva
62
3
10
2692.31319977256
20
2955.01852786871
30
0
11
2692.12119977256
21
2955.11452786871
31
0
0
LINE
8
Základní_vrstva
62
3
10
2692.12119977256
20
2955.11452786871
30
0
11
2691.92319977256
21
2955.16852786871
31
0
0
LINE
8
Základní_vrstva
62
3
10
2691.92319977256
20
2955.16852786871
30
0
11
2691.76119977256
21
2955.28252786871
31
0
0
LINE
8
Základní_vrstva
62
3
10
2691.76119977256
20
2955.28252786871
30
0
11
2691.57519977256
21
2955.36652786871
31
0
0
LINE
8
Základní_vrstva
62
3
10
2691.57519977256
20
2955.36652786871
30
0
11
2691.37719977256
21
2955.31252786871
31
0
0
LINE
8
Základní_vrstva
62
3
10
2691.37719977256
20
2955.31252786871
30
0
11
2691.20319977256
21
2955.22852786871
31
0
0
LINE
8
Základní_vrstva
62
3
10
2691.20319977256
20
2955.22852786871
30
0
11
2690.99919977256
21
2955.21052786871
31
0
0
LINE
8
Základní_vrstva
62
3
10
2690.99919977256
20
2955.21052786871
30
0
11
2690.79519977256
21
2955.16252786871
31
0
0
LINE
8
Základní_vrstva
62
3
10
2690.79519977256
20
2955.16252786871
30
0
11
2690.66919977256
21
2954.98852786871
31
0
0
LINE
8
Základní_vrstva
62
3
10
2690.66919977256
20
2954.98852786871
30
0
11
2690.57919977256
21
2954.80252786871
31
0
0
LINE
8
Základní_vrstva
62
3
10
2690.57919977256
20
2954.80252786871
30
0
11
2690.44119977256
21
2954.66452786871
31
0
0
LINE
8
Základní_vrstva
62
3
10
2690.44119977256
20
2954.66452786871
30
0
11
2690.32119977256
21
2954.47852786871
31
0
0
LINE
8
Základní_vrstva
62
3
10
2690.32119977256
20
2954.47852786871
30
0
11
2690.33919977256
21
2954.27452786871
31
0
0
LINE
8
Základní_vrstva
62
3
10
2690.33919977256
20
2954.27452786871
30
0
11
2690.39319977256
21
2954.08852786871
31
0
0
LINE
8
Základní_vrstva
62
3
10
2690.39319977256
20
2954.08852786871
30
0
11
2690.36919977256
21
2953.89052786871
31
0
0
LINE
8
Základní_vrstva
62
3
10
2690.36919977256
20
2953.89052786871
30
0
11
2690.38719977256
21
2953.68652786871
31
0
0
LINE
8
Základní_vrstva
62
3
10
2690.38719977256
20
2953.68652786871
30
0
11
2690.53719977256
21
2953.53052786871
31
0
0
LINE
8
Základní_vrstva
62
3
10
2690.53719977256
20
2953.53052786871
30
0
11
2690.71119977256
21
2953.41052786871
31
0
0
LINE
8
Základní_vrstva
62
3
10
2690.71119977256
20
2953.41052786871
30
0
11
2690.82519977256
21
2953.24852786871
31
0
0
LINE
8
Základní_vrstva
62
3
10
2690.82519977256
20
2953.24852786871
30
0
11
2690.95719977256
21
2953.11052786871
31
0
0
LINE
8
Základní_vrstva
62
3
10
2690.95719977256
20
2953.11052786871
30
0
11
2691.16119977256
21
2953.09252786871
31
0
0
LINE
8
Základní_vrstva
62
3
10
2691.16119977256
20
2953.09252786871
30
0
11
2691.37119977256
21
2953.11052786871
31
0
0
LINE
8
Základní_vrstva
62
3
10
2691.37119977256
20
2953.11052786871
30
0
11
2691.56319977256
21
2953.05652786871
31
0
0
LINE
8
Základní_vrstva
62
3
10
2691.56319977256
20
2953.05652786871
30
0
11
2691.77319977256
21
2953.03852786871
31
0
0
LINE
8
Základní_vrstva
62
3
10
2691.77319977256
20
2953.03852786871
30
0
11
2691.94119977256
21
2953.15252786871
31
0
0
LINE
8
Základní_vrstva
62
3
10
2691.94119977256
20
2953.15252786871
30
0
11
2692.07919977256
21
2953.29652786871
31
0
0
LINE
8
Základní_vrstva
62
3
10
2692.07919977256
20
2953.29652786871
30
0
11
2692.26519977256
21
2953.38052786871
31
0
0
LINE
8
Základní_vrstva
62
3
10
2692.26519977256
20
2953.38052786871
30
0
11
2692.43919977256
21
2953.50652786871
31
0
0
LINE
8
Základní_vrstva
62
3
10
2692.43919977256
20
2953.50652786871
30
0
11
2692.49919977256
21
2953.71052786871
31
0
0
LINE
8
Základní_vrstva
62
3
10
2692.49919977256
20
2953.71052786871
30
0
11
2692.51119977256
21
2953.91452786871
31
0
0
LINE
8
Základní_vrstva
62
3
10
2692.51119977256
20
2953.91452786871
30
0
11
2692.59519977256
21
2954.10652786871
31
0
0
LINE
8
Základní_vrstva
62
3
10
2692.59519977256
20
2954.10652786871
30
0
11
2692.64919977256
21
2954.28052786871
31
0
0
CIRCLE
8
Základní_vrstva
62
3
10
2691.46719977256
20
2954.18452786871
30
0
40
0.0999999999999091
0
LINE
8
Základní_vrstva
62
3
10
2697.10804352256
20
2955.47115286871
30
0
11
2697.03604352256
21
2955.63915286871
31
0
0
LINE
8
Základní_vrstva
62
3
10
2697.03604352256
20
2955.63915286871
30
0
11
2696.91604352256
21
2955.82515286871
31
0
0
LINE
8
Základní_vrstva
62
3
10
2696.91604352256
20
2955.82515286871
30
0
11
2696.86204352256
21
2956.02915286871
31
0
0
LINE
8
Základní_vrstva
62
3
10
2696.86204352256
20
2956.02915286871
30
0
11
2696.77804352256
21
2956.20915286871
31
0
0
LINE
8
Základní_vrstva
62
3
10
2696.77804352256
20
2956.20915286871
30
0
11
2696.58604352256
21
2956.30515286871
31
0
0
LINE
8
Základní_vrstva
62
3
10
2696.58604352256
20
2956.30515286871
30
0
11
2696.38804352256
21
2956.35915286871
31
0
0
LINE
8
Základní_vrstva
62
3
10
2696.38804352256
20
2956.35915286871
30
0
11
2696.22604352256
21
2956.47315286871
31
0
0
LINE
8
Základní_vrstva
62
3
10
2696.22604352256
20
2956.47315286871
30
0
11
2696.04004352256
21
2956.55715286871
31
0
0
LINE
8
Základní_vrstva
62
3
10
2696.04004352256
20
2956.55715286871
30
0
11
2695.84204352256
21
2956.50315286871
31
0
0
LINE
8
Základní_vrstva
62
3
10
2695.84204352256
20
2956.50315286871
30
0
11
2695.66804352256
21
2956.41915286871
31
0
0
LINE
8
Základní_vrstva
62
3
10
2695.66804352256
20
2956.41915286871
30
0
11
2695.46404352256
21
2956.40115286871
31
0
0
LINE
8
Základní_vrstva
62
3
10
2695.46404352256
20
2956.40115286871
30
0
11
2695.26004352256
21
2956.35315286871
31
0
0
LINE
8
Základní_vrstva
62
3
10
2695.26004352256
20
2956.35315286871
30
0
11
2695.13404352256
21
2956.17915286871
31
0
0
LINE
8
Základní_vrstva
62
3
10
2695.13404352256
20
2956.17915286871
30
0
11
2695.04404352256
21
2955.99315286871
31
0
0
LINE
8
Základní_vrstva
62
3
10
2695.04404352256
20
2955.99315286871
30
0
11
2694.90604352256
21
2955.85515286871
31
0
0
LINE
8
Základní_vrstva
62
3
10
2694.90604352256
20
2955.85515286871
30
0
11
2694.78604352256
21
2955.66915286871
31
0
0
LINE
8
Základní_vrstva
62
3
10
2694.78604352256
20
2955.66915286871
30
0
11
2694.80404352256
21
2955.46515286871
31
0
0
LINE
8
Základní_vrstva
62
3
10
2694.80404352256
20
2955.46515286871
30
0
11
2694.85804352256
21
2955.27915286871
31
0
0
LINE
8
Základní_vrstva
62
3
10
2694.85804352256
20
2955.27915286871
30
0
11
2694.83404352256
21
2955.08115286871
31
0
0
LINE
8
Základní_vrstva
62
3
10
2694.83404352256
20
2955.08115286871
30
0
11
2694.85204352256
21
2954.87715286871
31
0
0
LINE
8
Základní_vrstva
62
3
10
2694.85204352256
20
2954.87715286871
30
0
11
2695.00204352256
21
2954.72115286871
31
0
0
LINE
8
Základní_vrstva
62
3
10
2695.00204352256
20
2954.72115286871
30
0
11
2695.17604352256
21
2954.60115286871
31
0
0
LINE
8
Základní_vrstva
62
3
10
2695.17604352256
20
2954.60115286871
30
0
11
2695.29004352256
21
2954.43915286871
31
0
0
LINE
8
Základní_vrstva
62
3
10
2695.29004352256
20
2954.43915286871
30
0
11
2695.42204352256
21
2954.30115286871
31
0
0
LINE
8
Základní_vrstva
62
3
10
2695.42204352256
20
2954.30115286871
30
0
11
2695.62604352256
21
2954.28315286871
31
0
0
LINE
8
Základní_vrstva
62
3
10
2695.62604352256
20
2954.28315286871
30
0
11
2695.83604352256
21
2954.30115286871
31
0
0
LINE
8
Základní_vrstva
62
3
10
2695.83604352256
20
2954.30115286871
30
0
11
2696.02804352256
21
2954.24715286871
31
0
0
LINE
8
Základní_vrstva
62
3
10
2696.02804352256
20
2954.24715286871
30
0
11
2696.23804352256
21
2954.22915286871
31
0
0
LINE
8
Základní_vrstva
62
3
10
2696.23804352256
20
2954.22915286871
30
0
11
2696.40604352256
21
2954.34315286871
31
0
0
LINE
8
Základní_vrstva
62
3
10
2696.40604352256
20
2954.34315286871
30
0
11
2696.54404352256
21
2954.48715286871
31
0
0
LINE
8
Základní_vrstva
62
3
10
2696.54404352256
20
2954.48715286871
30
0
11
2696.73004352256
21
2954.57115286871
31
0
0
LINE
8
Základní_vrstva
62
3
10
2696.73004352256
20
2954.57115286871
30
0
11
2696.90404352256
21
2954.69715286871
31
0
0
LINE
8
Základní_vrstva
62
3
10
2696.90404352256
20
2954.69715286871
30
0
11
2696.96404352256
21
2954.90115286871
31
0
0
LINE
8
Základní_vrstva
62
3
10
2696.96404352256
20
2954.90115286871
30
0
11
2696.97604352256
21
2955.10515286871
31
0
0
LINE
8
Základní_vrstva
62
3
10
2696.97604352256
20
2955.10515286871
30
0
11
2697.06004352256
21
2955.29715286871
31
0
0
LINE
8
Základní_vrstva
62
3
10
2697.06004352256
20
2955.29715286871
30
0
11
2697.11404352256
21
2955.47115286871
31
0
0
CIRCLE
8
Základní_vrstva
62
3
10
2695.93204352256
20
2955.37515286871
30
0
40
0.0999999999999091
0
LINE
8
Základní_vrstva
62
3
10
2702.16819977256
20
2956.95943411871
30
0
11
2702.09619977256
21
2957.12743411871
31
0
0
LINE
8
Základní_vrstva
62
3
10
2702.09619977256
20
2957.12743411871
30
0
11
2701.97619977256
21
2957.31343411871
31
0
0
LINE
8
Základní_vrstva
62
3
10
2701.97619977256
20
2957.31343411871
30
0
11
2701.92219977256
21
2957.51743411871
31
0
0
LINE
8
Základní_vrstva
62
3
10
2701.92219977256
20
2957.51743411871
30
0
11
2701.83819977256
21
2957.69743411871
31
0
0
LINE
8
Základní_vrstva
62
3
10
2701.83819977256
20
2957.69743411871
30
0
11
2701.64619977256
21
2957.79343411871
31
0
0
LINE
8
Základní_vrstva
62
3
10
2701.64619977256
20
2957.79343411871
30
0
11
2701.44819977256
21
2957.84743411871
31
0
0
LINE
8
Základní_vrstva
62
3
10
2701.44819977256
20
2957.84743411871
30
0
11
2701.28619977256
21
2957.96143411871
31
0
0
LINE
8
Základní_vrstva
62
3
10
2701.28619977256
20
2957.96143411871
30
0
11
2701.10019977256
21
2958.04543411871
31
0
0
LINE
8
Základní_vrstva
62
3
10
2701.10019977256
20
2958.04543411871
30
0
11
2700.90219977256
21
2957.99143411871
31
0
0
LINE
8
Základní_vrstva
62
3
10
2700.90219977256
20
2957.99143411871
30
0
11
2700.72819977256
21
2957.90743411871
31
0
0
LINE
8
Základní_vrstva
62
3
10
2700.72819977256
20
2957.90743411871
30
0
11
2700.52419977256
21
2957.88943411871
31
0
0
LINE
8
Základní_vrstva
62
3
10
2700.52419977256
20
2957.88943411871
30
0
11
2700.32019977256
21
2957.84143411871
31
0
0
LINE
8
Základní_vrstva
62
3
10
2700.32019977256
20
2957.84143411871
30
0
11
2700.19419977256
21
2957.66743411871
31
0
0
LINE
8
Základní_vrstva
62
3
10
2700.19419977256
20
2957.66743411871
30
0
11
2700.10419977256
21
2957.48143411871
31
0
0
LINE
8
Základní_vrstva
62
3
10
2700.10419977256
20
2957.48143411871
30
0
11
2699.96619977256
21
2957.34343411871
31
0
0
LINE
8
Základní_vrstva
62
3
10
2699.96619977256
20
2957.34343411871
30
0
11
2699.84619977256
21
2957.15743411871
31
0
0
LINE
8
Základní_vrstva
62
3
10
2699.84619977256
20
2957.15743411871
30
0
11
2699.86419977256
21
2956.95343411871
31
0
0
LINE
8
Základní_vrstva
62
3
10
2699.86419977256
20
2956.95343411871
30
0
11
2699.91819977256
21
2956.76743411871
31
0
0
LINE
8
Základní_vrstva
62
3
10
2699.91819977256
20
2956.76743411871
30
0
11
2699.89419977256
21
2956.56943411871
31
0
0
LINE
8
Základní_vrstva
62
3
10
2699.89419977256
20
2956.56943411871
30
0
11
2699.91219977256
21
2956.36543411871
31
0
0
LINE
8
Základní_vrstva
62
3
10
2699.91219977256
20
2956.36543411871
30
0
11
2700.06219977256
21
2956.20943411871
31
0
0
LINE
8
Základní_vrstva
62
3
10
2700.06219977256
20
2956.20943411871
30
0
11
2700.23619977256
21
2956.08943411871
31
0
0
LINE
8
Základní_vrstva
62
3
10
2700.23619977256
20
2956.08943411871
30
0
11
2700.35019977256
21
2955.92743411871
31
0
0
LINE
8
Základní_vrstva
62
3
10
2700.35019977256
20
2955.92743411871
30
0
11
2700.48219977256
21
2955.78943411871
31
0
0
LINE
8
Základní_vrstva
62
3
10
2700.48219977256
20
2955.78943411871
30
0
11
2700.68619977256
21
2955.77143411871
31
0
0
LINE
8
Základní_vrstva
62
3
10
2700.68619977256
20
2955.77143411871
30
0
11
2700.89619977256
21
2955.78943411871
31
0
0
LINE
8
Základní_vrstva
62
3
10
2700.89619977256
20
2955.78943411871
30
0
11
2701.08819977256
21
2955.73543411871
31
0
0
LINE
8
Základní_vrstva
62
3
10
2701.08819977256
20
2955.73543411871
30
0
11
2701.29819977256
21
2955.71743411871
31
0
0
LINE
8
Základní_vrstva
62
3
10
2701.29819977256
20
2955.71743411871
30
0
11
2701.46619977256
21
2955.83143411871
31
0
0
LINE
8
Základní_vrstva
62
3
10
2701.46619977256
20
2955.83143411871
30
0
11
2701.60419977256
21
2955.97543411871
31
0
0
LINE
8
Základní_vrstva
62
3
10
2701.60419977256
20
2955.97543411871
30
0
11
2701.79019977256
21
2956.05943411871
31
0
0
LINE
8
Základní_vrstva
62
3
10
2701.79019977256
20
2956.05943411871
30
0
11
2701.96419977256
21
2956.18543411871
31
0
0
LINE
8
Základní_vrstva
62
3
10
2701.96419977256
20
2956.18543411871
30
0
11
2702.02419977256
21
2956.38943411871
31
0
0
LINE
8
Základní_vrstva
62
3
10
2702.02419977256
20
2956.38943411871
30
0
11
2702.03619977256
21
2956.59343411871
31
0
0
LINE
8
Základní_vrstva
62
3
10
2702.03619977256
20
2956.59343411871
30
0
11
2702.12019977256
21
2956.78543411871
31
0
0
LINE
8
Základní_vrstva
62
3
10
2702.12019977256
20
2956.78543411871
30
0
11
2702.17419977256
21
2956.95943411871
31
0
0
CIRCLE
8
Základní_vrstva
62
3
10
2700.99219977256
20
2956.86343411871
30
0
40
0.0999999999999091
0
LINE
8
Základní_vrstva
62
3
10
2707.22835602256
20
2958.34849661871
30
0
11
2707.15635602256
21
2958.51649661871
31
0
0
LINE
8
Základní_vrstva
62
3
10
2707.15635602256
20
2958.51649661871
30
0
11
2707.03635602256
21
2958.70249661871
31
0
0
LINE
8
Základní_vrstva
62
3
10
2707.03635602256
20
2958.70249661871
30
0
11
2706.98235602256
21
2958.90649661871
31
0
0
LINE
8
Základní_vrstva
62
3
10
2706.98235602256
20
2958.90649661871
30
0
11
2706.89835602256
21
2959.08649661871
31
0
0
LINE
8
Základní_vrstva
62
3
10
2706.89835602256
20
2959.08649661871
30
0
11
2706.70635602256
21
2959.18249661871
31
0
0
LINE
8
Základní_vrstva
62
3
10
2706.70635602256
20
2959.18249661871
30
0
11
2706.50835602256
21
2959.23649661871
31
0
0
LINE
8
Základní_vrstva
62
3
10
2706.50835602256
20
2959.23649661871
30
0
11
2706.34635602256
21
2959.35049661871
31
0
0
LINE
8
Základní_vrstva
62
3
10
2706.34635602256
20
2959.35049661871
30
0
11
2706.16035602256
21
2959.43449661871
31
0
0
LINE
8
Základní_vrstva
62
3
10
2706.16035602256
20
2959.43449661871
30
0
11
2705.96235602256
21
2959.38049661871
31
0
0
LINE
8
Základní_vrstva
62
3
10
2705.96235602256
20
2959.38049661871
30
0
11
2705.78835602256
21
2959.29649661871
31
0
0
LINE
8
Základní_vrstva
62
3
10
2705.78835602256
20
2959.29649661871
30
0
11
2705.58435602256
21
2959.27849661871
31
0
0
LINE
8
Základní_vrstva
62
3
10
2705.58435602256
20
2959.27849661871
30
0
11
2705.38035602256
21
2959.23049661871
31
0
0
LINE
8
Základní_vrstva
62
3
10
2705.38035602256
20
2959.23049661871
30
0
11
2705.25435602256
21
2959.05649661871
31
0
0
LINE
8
Základní_vrstva
62
3
10
2705.25435602256
20
2959.05649661871
30
0
11
2705.16435602256
21
2958.87049661871
31
0
0
LINE
8
Základní_vrstva
62
3
10
2705.16435602256
20
2958.87049661871
30
0
11
2705.02635602256
21
2958.73249661871
31
0
0
LINE
8
Základní_vrstva
62
3
10
2705.02635602256
20
2958.73249661871
30
0
11
2704.90635602256
21
2958.54649661871
31
0
0
LINE
8
Základní_vrstva
62
3
10
2704.90635602256
20
2958.54649661871
30
0
11
2704.92435602256
21
2958.34249661871
31
0
0
LINE
8
Základní_vrstva
62
3
10
2704.92435602256
20
2958.34249661871
30
0
11
2704.97835602256
21
2958.15649661871
31
0
0
LINE
8
Základní_vrstva
62
3
10
2704.97835602256
20
2958.15649661871
30
0
11
2704.95435602256
21
2957.95849661871
31
0
0
LINE
8
Základní_vrstva
62
3
10
2704.95435602256
20
2957.95849661871
30
0
11
2704.97235602256
21
2957.75449661871
31
0
0
LINE
8
Základní_vrstva
62
3
10
2704.97235602256
20
2957.75449661871
30
0
11
2705.12235602256
21
2957.59849661871
31
0
0
LINE
8
Základní_vrstva
62
3
10
2705.12235602256
20
2957.59849661871
30
0
11
2705.29635602256
21
2957.47849661871
31
0
0
LINE
8
Základní_vrstva
62
3
10
2705.29635602256
20
2957.47849661871
30
0
11
2705.41035602256
21
2957.31649661871
31
0
0
LINE
8
Základní_vrstva
62
3
10
2705.41035602256
20
2957.31649661871
30
0
11
2705.54235602256
21
2957.17849661871
31
0
0
LINE
8
Základní_vrstva
62
3
10
2705.54235602256
20
2957.17849661871
30
0
11
2705.74635602256
21
2957.16049661871
31
0
0
LINE
8
Základní_vrstva
62
3
10
2705.74635602256
20
2957.16049661871
30
0
11
2705.95635602256
21
2957.17849661871
31
0
0
LINE
8
Základní_vrstva
62
3
10
2705.95635602256
20
2957.17849661871
30
0
11
2706.14835602256
21
2957.12449661871
31
0
0
LINE
8
Základní_vrstva
62
3
10
2706.14835602256
20
2957.12449661871
30
0
11
2706.35835602256
21
2957.10649661871
31
0
0
LINE
8
Základní_vrstva
62
3
10
2706.35835602256
20
2957.10649661871
30
0
11
2706.52635602256
21
2957.22049661871
31
0
0
LINE
8
Základní_vrstva
62
3
10
2706.52635602256
20
2957.22049661871
30
0
11
2706.66435602256
21
2957.36449661871
31
0
0
LINE
8
Základní_vrstva
62
3
10
2706.66435602256
20
2957.36449661871
30
0
11
2706.85035602256
21
2957.44849661871
31
0
0
LINE
8
Základní_vrstva
62
3
10
2706.85035602256
20
2957.44849661871
30
0
11
2707.02435602256
21
2957.57449661871
31
0
0
LINE
8
Základní_vrstva
62
3
10
2707.02435602256
20
2957.57449661871
30
0
11
2707.08435602256
21
2957.77849661871
31
0
0
LINE
8
Základní_vrstva
62
3
10
2707.08435602256
20
2957.77849661871
30
0
11
2707.09635602256
21
2957.98249661871
31
0
0
LINE
8
Základní_vrstva
62
3
10
2707.09635602256
20
2957.98249661871
30
0
11
2707.18035602256
21
2958.17449661871
31
0
0
LINE
8
Základní_vrstva
62
3
10
2707.18035602256
20
2958.17449661871
30
0
11
2707.23435602256
21
2958.34849661871
31
0
0
CIRCLE
8
Základní_vrstva
62
3
10
2706.05235602256
20
2958.25249661871
30
0
40
0.0999999999999091
0
LINE
8
Základní_vrstva
62
3
10
2712.88382477256
20
2960.03521536871
30
0
11
2712.81182477256
21
2960.20321536871
31
0
0
LINE
8
Základní_vrstva
62
3
10
2712.81182477256
20
2960.20321536871
30
0
11
2712.69182477256
21
2960.38921536871
31
0
0
LINE
8
Základní_vrstva
62
3
10
2712.69182477256
20
2960.38921536871
30
0
11
2712.63782477256
21
2960.59321536871
31
0
0
LINE
8
Základní_vrstva
62
3
10
2712.63782477256
20
2960.59321536871
30
0
11
2712.55382477256
21
2960.77321536871
31
0
0
LINE
8
Základní_vrstva
62
3
10
2712.55382477256
20
2960.77321536871
30
0
11
2712.36182477256
21
2960.86921536871
31
0
0
LINE
8
Základní_vrstva
62
3
10
2712.36182477256
20
2960.86921536871
30
0
11
2712.16382477256
21
2960.92321536871
31
0
0
LINE
8
Základní_vrstva
62
3
10
2712.16382477256
20
2960.92321536871
30
0
11
2712.00182477256
21
2961.03721536871
31
0
0
LINE
8
Základní_vrstva
62
3
10
2712.00182477256
20
2961.03721536871
30
0
11
2711.81582477256
21
2961.12121536871
31
0
0
LINE
8
Základní_vrstva
62
3
10
2711.81582477256
20
2961.12121536871
30
0
11
2711.61782477256
21
2961.06721536871
31
0
0
LINE
8
Základní_vrstva
62
3
10
2711.61782477256
20
2961.06721536871
30
0
11
2711.44382477256
21
2960.98321536871
31
0
0
LINE
8
Základní_vrstva
62
3
10
2711.44382477256
20
2960.98321536871
30
0
11
2711.23982477256
21
2960.96521536871
31
0
0
LINE
8
Základní_vrstva
62
3
10
2711.23982477256
20
2960.96521536871
30
0
11
2711.03582477256
21
2960.91721536871
31
0
0
LINE
8
Základní_vrstva
62
3
10
2711.03582477256
20
2960.91721536871
30
0
11
2710.90982477256
21
2960.74321536871
31
0
0
LINE
8
Základní_vrstva
62
3
10
2710.90982477256
20
2960.74321536871
30
0
11
2710.81982477256
21
2960.55721536871
31
0
0
LINE
8
Základní_vrstva
62
3
10
2710.81982477256
20
2960.55721536871
30
0
11
2710.68182477256
21
2960.41921536871
31
0
0
LINE
8
Základní_vrstva
62
3
10
2710.68182477256
20
2960.41921536871
30
0
11
2710.56182477256
21
2960.23321536871
31
0
0
LINE
8
Základní_vrstva
62
3
10
2710.56182477256
20
2960.23321536871
30
0
11
2710.57982477256
21
2960.02921536871
31
0
0
LINE
8
Základní_vrstva
62
3
10
2710.57982477256
20
2960.02921536871
30
0
11
2710.63382477256
21
2959.84321536871
31
0
0
LINE
8
Základní_vrstva
62
3
10
2710.63382477256
20
2959.84321536871
30
0
11
2710.60982477256
21
2959.64521536871
31
0
0
LINE
8
Základní_vrstva
62
3
10
2710.60982477256
20
2959.64521536871
30
0
11
2710.62782477256
21
2959.44121536871
31
0
0
LINE
8
Základní_vrstva
62
3
10
2710.62782477256
20
2959.44121536871
30
0
11
2710.77782477256
21
2959.28521536871
31
0
0
LINE
8
Základní_vrstva
62
3
10
2710.77782477256
20
2959.28521536871
30
0
11
2710.95182477256
21
2959.16521536871
31
0
0
LINE
8
Základní_vrstva
62
3
10
2710.95182477256
20
2959.16521536871
30
0
11
2711.06582477256
21
2959.00321536871
31
0
0
LINE
8
Základní_vrstva
62
3
10
2711.06582477256
20
2959.00321536871
30
0
11
2711.19782477256
21
2958.86521536871
31
0
0
LINE
8
Základní_vrstva
62
3
10
2711.19782477256
20
2958.86521536871
30
0
11
2711.40182477256
21
2958.84721536871
31
0
0
LINE
8
Základní_vrstva
62
3
10
2711.40182477256
20
2958.84721536871
30
0
11
2711.61182477256
21
2958.86521536871
31
0
0
LINE
8
Základní_vrstva
62
3
10
2711.61182477256
20
2958.86521536871
30
0
11
2711.80382477256
21
2958.81121536871
31
0
0
LINE
8
Základní_vrstva
62
3
10
2711.80382477256
20
2958.81121536871
30
0
11
2712.01382477256
21
2958.79321536871
31
0
0
LINE
8
Základní_vrstva
62
3
10
2712.01382477256
20
2958.79321536871
30
0
11
2712.18182477256
21
2958.90721536871
31
0
0
LINE
8
Základní_vrstva
62
3
10
2712.18182477256
20
2958.90721536871
30
0
11
2712.31982477256
21
2959.05121536871
31
0
0
LINE
8
Základní_vrstva
62
3
10
2712.31982477256
20
2959.05121536871
30
0
11
2712.50582477256
21
2959.13521536871
31
0
0
LINE
8
Základní_vrstva
62
3
10
2712.50582477256
20
2959.13521536871
30
0
11
2712.67982477256
21
2959.26121536871
31
0
0
LINE
8
Základní_vrstva
62
3
10
2712.67982477256
20
2959.26121536871
30
0
11
2712.73982477256
21
2959.46521536871
31
0
0
LINE
8
Základní_vrstva
62
3
10
2712.73982477256
20
2959.46521536871
30
0
11
2712.75182477256
21
2959.66921536871
31
0
0
LINE
8
Základní_vrstva
62
3
10
2712.75182477256
20
2959.66921536871
30
0
11
2712.83582477256
21
2959.86121536871
31
0
0
LINE
8
Základní_vrstva
62
3
10
2712.83582477256
20
2959.86121536871
30
0
11
2712.88982477256
21
2960.03521536871
31
0
0
CIRCLE
8
Základní_vrstva
62
3
10
2711.70782477256
20
2959.93921536871
30
0
40
0.0999999999999091
0
LINE
8
Základní_vrstva
62
3
10
2664.57891852256
20
2968.27359036871
30
0
11
2661.60235602256
21
2947.04077786871
31
0
0
TEXT
8
Základní_vrstva
62
3
10
2663.09063727256
20
2973.73062161871
30
0
40
3
50
0
11
2663.09063727256
21
2973.73062161871
31
0
1
1
72
0
73
3
0
POINT
8
Základní_vrstva
62
0
10
2459.39454352256
20
2885.62437161871
30
0
0
POINT
8
Základní_vrstva
62
0
10
2464.85157477256
20
2887.31109036871
30
0
0
LINE
8
Základní_vrstva
62
0
10
2459.43145680641
20
2885.50494628858
30
0
11
2465.32251585445
21
2866.44563760375
31
0
0
LINE
8
Základní_vrstva
62
0
10
2464.88848805641
20
2887.19166503859
30
0
11
2470.77954710445
21
2868.13235635375
31
0
0
TEXT
8
Základní_vrstva
62
0
10
2465.02655216155
20
2869.8605329846
30
0
40
1.5
50
17.1759036157485
11
2465.02655216155
21
2869.8605329846
31
0
1
5,7m
72
0
73
3
0
SOLID
8
Základní_vrstva
62
0
10
2465.24868928674
20
2866.684488264
30
0
11
2465.69365669519
21
2866.93804523252
31
0
12
2465.75912451928
22
2866.72623756633
32
0
13
2465.75912451928
23
2866.72623756633
33
0
0
SOLID
8
Základní_vrstva
62
0
10
2470.70572053674
20
2868.371207014
30
0
11
2470.2607531283
21
2868.11765004549
31
0
12
2470.1952853042
22
2868.32945771167
32
0
13
2470.1952853042
23
2868.32945771167
33
0
0
LINE
8
Základní_vrstva
62
0
10
2465.72639060723
20
2866.83214139942
30
0
11
2470.22801921625
21
2868.22355387858
31
0
0
TEXT
8
Základní_vrstva
62
0
10
2172.93045264091
20
2745.8452836391
30
0
40
2.5
50
0
11
2172.93045264091
21
2745.8452836391
31
0
1
Legenda
72
0
73
3
0
TEXT
8
Základní_vrstva
62
3
10
2172.01363167664
20
2736.54257335337
30
0
40
3
50
0
11
2172.01363167664
21
2736.54257335337
31
0
1
1   javor mlieèny (Acer platanoides´Columnare´)
72
0
73
3
0
POLYLINE
8
Základní_vrstva
62
0
66
1
0
VERTEX
8
Základní_vrstva
10
2170.31032457126
20
2815.83916995367
30
0
0
VERTEX
8
Základní_vrstva
10
2370.31032457126
20
2815.83916995367
30
0
0
VERTEX
8
Základní_vrstva
10
2370.31032457126
20
2760.52451454086
30
0
0
VERTEX
8
Základní_vrstva
10
2170.31032457126
20
2760.52451454086
30
0
0
VERTEX
8
Základní_vrstva
10
2170.31032457126
20
2815.83916995367
30
0
0
SEQEND
0
LINE
8
Základní_vrstva
62
0
10
2292.83832457126
20
2815.83916995367
30
0
11
2292.83832457126
21
2760.52451454086
31
0
0
LINE
8
Základní_vrstva
62
0
10
2292.83832457126
20
2806.6200607182
30
0
11
2370.31032457126
21
2806.6200607182
31
0
0
LINE
8
Základní_vrstva
62
0
10
2170.31032457126
20
2797.40095148273
30
0
11
2370.31032457126
21
2797.40095148273
31
0
0
LINE
8
Základní_vrstva
62
0
10
2292.83832457126
20
2788.18184224727
30
0
11
2370.31032457126
21
2788.18184224727
31
0
0
LINE
8
Základní_vrstva
62
0
10
2170.31032457126
20
2778.9627330118
30
0
11
2370.31032457126
21
2778.9627330118
31
0
0
LINE
8
Základní_vrstva
62
0
10
2292.83832457126
20
2769.74362377633
30
0
11
2370.31032457126
21
2769.74362377633
31
0
0
LINE
8
Základní_vrstva
62
0
10
2311.78832457126
20
2806.6200607182
30
0
11
2311.78832457126
21
2760.52451454086
31
0
0
TEXT
8
Základní_vrstva
62
0
10
2171.31032457126
20
2808.8700607182
30
0
40
2.25
50
0
11
2171.31032457126
21
2808.8700607182
31
0
1
Projekt pozemkových úprav Ve¾ký Ruskov (okr. TV, k.ú. V. Ruskov)
72
0
73
3
0
TEXT
8
Základní_vrstva
62
0
10
2293.83832457126
20
2812.97961533593
30
0
40
1.75
50
0
11
2293.83832457126
21
2812.97961533593
31
0
1
Objednávate¾ : LUPO-GEO s.r.o., J.Husa 1460/23, TV
72
0
73
3
0
TEXT
8
Základní_vrstva
62
0
10
2293.83832457126
20
2803.76050610047
30
0
40
1.75
50
0
11
2293.83832457126
21
2803.76050610047
31
0
1
Zhotovite¾
72
0
73
3
0
TEXT
8
Základní_vrstva
62
0
10
2312.78832457126
20
2803.76050610047
30
0
40
1.75
50
0
11
2312.78832457126
21
2803.76050610047
31
0
1
STAFIN s.r.o., B.Nemcovej 3538/3, TV
72
0
73
3
0
TEXT
8
Základní_vrstva
62
0
10
2171.31032457126
20
2790.43184224727
30
0
40
2.25
50
0
11
2171.31032457126
21
2790.43184224727
31
0
1
Ekologické, protierózne a krajinotvorné zariadenia a opatrenia
72
0
73
3
0
TEXT
8
Základní_vrstva
62
0
10
2293.83832457126
20
2794.541396865
30
0
40
1.75
50
0
11
2293.83832457126
21
2794.541396865
31
0
1
Vypracoval
72
0
73
3
0
TEXT
8
Základní_vrstva
62
0
10
2312.78832457126
20
2794.541396865
30
0
40
1.75
50
0
11
2312.78832457126
21
2794.541396865
31
0
1
Ing. Estera Schwartzová
72
0
73
3
0
TEXT
8
Základní_vrstva
62
0
10
2293.83832457126
20
2785.32228762953
30
0
40
1.75
50
0
11
2293.83832457126
21
2785.32228762953
31
0
1
Dátum
72
0
73
3
0
TEXT
8
Základní_vrstva
62
0
10
2312.78832457126
20
2785.32228762953
30
0
40
1.75
50
0
11
2312.78832457126
21
2785.32228762953
31
0
1
20.5.2008
72
0
73
3
0
TEXT
8
Základní_vrstva
62
0
10
2171.31032457126
20
2772.49362377633
30
0
40
2.75
50
0
11
2171.31032457126
21
2772.49362377633
31
0
1
Výkres : Ekostabilizaèná plocha SO ZN 21
72
0
73
3
0
TEXT
8
Základní_vrstva
62
0
10
2293.83832457126
20
2776.10317839407
30
0
40
1.75
50
0
11
2293.83832457126
21
2776.10317839407
31
0
1
Formát
72
0
73
3
0
TEXT
8
Základní_vrstva
62
0
10
2312.78832457126
20
2776.10317839407
30
0
40
1.75
50
0
11
2312.78832457126
21
2776.10317839407
31
0
1
A3
72
0
73
3
0
TEXT
8
Základní_vrstva
62
0
10
2293.83832457126
20
2766.8840691586
30
0
40
1.75
50
0
11
2293.83832457126
21
2766.8840691586
31
0
1
Mierka
72
0
73
3
0
TEXT
8
Základní_vrstva
62
0
10
2312.78832457126
20
2766.8840691586
30
0
40
1.75
50
0
11
2312.78832457126
21
2766.8840691586
31
0
1
1:1000
72
0
73
3
0
POLYLINE
8
Základní_vrstva
62
0
66
1
0
VERTEX
8
Základní_vrstva
10
2168.50198855742
20
2817.5367787744
30
0
0
VERTEX
8
Základní_vrstva
10
2371.87475705832
20
2817.5367787744
30
0
0
VERTEX
8
Základní_vrstva
10
2371.87475705832
20
2758.52103610089
30
0
0
VERTEX
8
Základní_vrstva
10
2168.50198855742
20
2758.52103610089
30
0
0
VERTEX
8
Základní_vrstva
10
2168.50198855742
20
2817.5367787744
30
0
0
SEQEND
0
POLYLINE
8
Základní_vrstva
62
0
66
1
0
VERTEX
8
Základní_vrstva
10
2169.07982422632
20
2748.69782972965
30
0
0
VERTEX
8
Základní_vrstva
10
2271.35673762106
20
2748.69782972965
30
0
0
VERTEX
8
Základní_vrstva
10
2271.35673762106
20
2726.74007431157
30
0
0
VERTEX
8
Základní_vrstva
10
2169.07982422632
20
2726.74007431157
30
0
0
VERTEX
8
Základní_vrstva
10
2169.07982422632
20
2748.69782972965
30
0
0
SEQEND
0
POLYLINE
8
Základní_vrstva
62
0
66
1
0
VERTEX
8
Základní_vrstva
10
2363.94470707352
20
3055.79570542563
30
0
0
VERTEX
8
Základní_vrstva
10
2769.01735125322
20
3055.79570542563
30
0
0
VERTEX
8
Základní_vrstva
10
2769.01735125322
20
2840.57370108424
30
0
0
VERTEX
8
Základní_vrstva
10
2363.94470707352
20
2840.57370108424
30
0
0
VERTEX
8
Základní_vrstva
10
2363.94470707352
20
3055.79570542563
30
0
0
SEQEND
0
ENDSEC
0
EOF
